Audioslave — Show Me How To Live

На этой странице Вы можете ознакомиться с 7 версиями подбора аккордов для гитары к песне "Show Me How To Live" группы (исполнителя) "Audioslave".

Audioslave - Show Me How To Live

Tabbed By Stephen Pang (piequat@hotmail.com)

*Dropped D Tuning*

Intro/Verse
G|---------------------------------------------------|
D|-------2-------------------------------------------|
A|-----2---------------------0h1-0-x-x-0-------------|
D|-0-2-----x-0-2-x-x-0-2-x-x-------------2--2-5-0--0-|

G|------------------------|
D|-------2----------------|
A|-----2------------------|
D|-0-2-----x-0-2-x-x-0-2--|

Chorus
G|-----------------------|
D|----------------0h2----|
A|-----------------------|
D|-2--5--0-2p0-2------0--|

Solo
G|-------------------------| G|--------------|
D|-------------------------| D|--------------|
A|-------------------------| x 3 A|--------------|
D|-9--/12--0-9-7-0--9-7-0--| D|--9--7--2--4--|

G|------------------------| G|----------------|
D|------------------------| D|----------------|
A|------------------------| x 3 A|----------------|
D|-/9--0--0-9-7-0--9-7-0--| D|--9--0--12--14--|

Before Last Chorus
G|-------------------|
D|-------------------|
A|-------------------|
D|-2-0--5-0--2-0--2--|

Ending
G|-------------|
D|-------------|
A|-------------|
D|-2----2----0-|
Show me how to live by Audioslave
Tuning-G,D,A,D

(0.21)
G:-----------------2h3p2--2-----0---------------------|
D:--------------------------2-2---0-------------------| x6
A:----------------------------------------------------|
D:0-0-2--0-2--0-2----------------------0-0-2--0-2--0-2|

G:------------------|
D:------------------| x8
A:---------------3--|
D:0-2--0h2-0h2-2---2|

G:-----------------2h3p2--2-----0---------------------|
D:--------------------------2-2---0-------------------| x2
A:----------------------------------------------------|
D:0-0-2--0-2--0-2----------------------0-0-2--0-2--0-2|

G:------------------|
D:------------------| x8
A:---------------3--|
D:0-2--0h2-0h2-2---2|

G:------------------|
D:--2/--------------| x3
A:-----1h2-1h2------|
D:2------------2-2-0|

G:------------------|
D:--2/-----0-0------|
A:-----2-2----------|
D:2-----------------|

G:------------------|
D:------------------| x3
A:2/---1h2-1h2------|
D:---2---------2-2-0|

G:------------------|
D:-----0-0-1-1-2~---|
A:2/----------------|
E:---2--------------|

(3.16)
G:------------------|
D:------------------| x2
A:------------------|
E:0-2--2-0--0-2-2---|

G:------------------|
D:------------------| x8
A:---------------3--|
D:0-2--0h2-0h2-2---2|

(Outro)
G:---------------|
D:---------------| x2
A:---------------|
D:2~--2~--2~--2~-|

Thanks, please rate it after you learn it.
Tabbed by:
_TheBassist01_
-----------------------------------------------------------------
Show Me How To Live – Audioslave
-----------------------------------------------------------------
Tabbed by: romanbirg
Email: romanbirg@hotmail.com

this is my first tab, so go easy, this song is very addictive, so I made a tab.
lol. But im sure this tab is about 97% correct, if not make some changes.


| h hammer-on
| p pull-off
| x Mute note
Tuning: Dadgbe

Intro - Distrortion
|---------------|
|---------------|
|----9----------|
|----9----2-----| x4
|----7----2-----|
|---------2-----|

Verse – Heavy Distortion
|---------------------------------------------------------------|
|---------------------------------------------------------------|
|---------------------------------------------------------------|
|-------2-------------------------------------------------------|
|------2--------------------------------------------------------|
|---0h2----x0-x0-2---x0-x0-2-----7-7h8p7---5h7p0----2h5p0-------|

|-----------------------------|
|-----------------------------|
|-----------------------------|
|-------2---------------------| [x2] [x3 (palm mute)] [x2]
|------2----------------------|
|---0h2---x0-x0-2---x0-x0-2---|


Chorus – Heavy Distortion
|------------------------------|
|------------------------------|
|------------------------------|
|--2----5-------------0h2------| x8
|--2----5----------------------|
|--2----5-----0h2p0h2-----0----|


Verse – Heavy Distortion
|---------------------------------------------------------------|
|---------------------------------------------------------------|
|---------------------------------------------------------------|
|-------2-------------------------------------------------------|
|------2--------------------------------------------------------|
|---0h2----x0-x0-2---x0-x0-2-----7-7h8p7---5h7p0----2h5p0-------|

|-----------------------------|
|-----------------------------|
|-----------------------------|
|-------2---------------------| [x2 (palm mute)]
|------2----------------------|
|---0h2---x0-x0-2---x0-x0-2---|


Chorus – Heavy Distortion
|------------------------------|
|------------------------------|
|------------------------------|
|--2----5-------------0h2------| x8
|--2----5----------------------|
|--2----5-----0h2p0h2-----0----|

Bridge
The bridge requires a sound effect called step, if u have it just hit the note up
and down repeatedly with the very tip of ur pick if u don’t have it just do it anyways
|---------|
|----5----|
|---------|
|---------|
|---------|
|---------|

Intro - Distortion
|---------------|
|---------------|
|----9----------|
|----9----2-----| x8
|----7----2-----|
|---------2-----|

Chorus – Heavy Distortion
|------------------------------|
|------------------------------|
|------------------------------|
|--2----5-------------0h2------| x8
|--2----5----------------------|
|--2----5-----0h2p0h2-----0----|

Outro – Heavy Distortion
|--------------|
|--------------|
|--------------|
|---2-------2--| x4
|---2-------2--|
|---2-------2--|


Enjoy! BTW Metallica IS the shiznit!!!!
ARTIST: AUDIOSLAVE
SONG: SHOW ME HOW TO LIVE
ALBUM: AUDIOSLAVE

This is my first tab, its 100% correct. I was at a band practice and a friend
of mine had a magazine written by Tom Morello and Tim Commerford, the singer
and lead guitarist of Audioslave. ENJOY..........

Drop D tuning
(low to high) D-A-D-G-B-E

Tablature explanation:

h hammer on
p pull of
x mute
/ slide
p.m. palm mute

INTRO:

e]--------------------------------------------------- Play 3 times
b]---3------------------------------------3----------
g]---2------------------------------------2----------
d]---0-------2----------------(2)--0------0-------2--
a]-----------2----------------(2)--0--------------2--
e]-----------2----------------(2)--0--------------2--
^HOLD THESE CHORDS^

2ND PART OF INTRO:

e]-------------------------------------------------------------------------
b]-------------------------------------------------------------------------
g]-------------------------------------------------------------------------
d]---------2---------------------------------------------------------------
a]------2---------------------------------------------------0--------------
e]--0h2---------x--0---2---x--x--0---2----x--7/8--7---x--x-----2----2--5--0

e]--------------------------------------
b]--------------------------------------
g]--------------------------------------
d]--------2-----------------------------
a]------2-------------------------------
e]--0h2--------x--0---2---x--x--0---2---

RIFF B VERSE: ALL PALM MUTED
AND WITH THE EARLY DAWN MOVING RIGHT
e]---------------------------------------------------------------------
b]---------------------------------------------------------------------
g]---------------------------------------------------------------------
d]--------2------------------------------------------------------------
a]------2----------------------------------------------------------0---
e]--0h2--------x--0---2--x--x---x---0----2----x---x--7/8--7---x--x----2
a long couldn't buy an eyeful of sleep
e]----------------------------------------------------------
b]----------------------------------------------------------
g]----------------------------------------------------------
d]-----------------------2----------------------------------
a]---------------------2------------------------------------
e]--5---0----0-----0h2--------x---0-----2--x--x---x---0----2

CHORUS:
NAIL IN MY HAND
e]-------------------------------
b]-------------------------------
g]------------------------------- Repeat twice
d]------------------------0h2----
a]--2----5---------------------0-
e]--2----5---0--2p0--2p0-------0-

VERSE: ALL SLIGHTLY PALM MUTED
Repeat Riff B, then do this after he says 'received'
BUILT WITH STOLEN PARTS A TELEPHONE IN
e]------------------------------------------------------------------
b]------------------------------------------------------------------
g]------------------------------------------------------------------
d]------2-----------------------------------------------------------
a]-----2-------------2------------------2-----------------------0---
e]--0h2-----x---0----2--x--x---x---0----2---x--x--7/8--7---x--x---2-
MY HEART (additional lryics at bottom)
e]-------------------I---------------------------------------
b]-------------------I---------------------------------------
g]-------------------I---------------------------------------
d]-------------------I------2--------------------------------repeat
a]-------------------I-----2-------------2-----------------2-this part
e]---2---5---0----0--I--0h2-----x---0----2----x---x---0----2-
^
when you repeat add an extra x here

e]--------------------------------------------------------------------
b]--------------------------------------------------------------------
g]--------------------------------------------------------------------
d]------2-------------------------------------------------------------
a]-----2-------------2---------0----2----x----x----x----x--x---x--x--x
e]--0h2-----x---0----2--x--x---0----2----x----x----x----x--x---x--x--x

CHORUS

BRIDGE:

e]----------
b]---3------
g]---2------
d]---0---2--
a]-------2--
e]-------2--

SOLO: something about a digiTech Whammy Pedal and Toggle Switch
^Whammy of
e]--0------------------0---------------------0-----0
b]-------------------------------------------0-----0
g]-------------------------------------------------0
d]-------------------------------------------------0
a]-------------------------------------------------0
e]-------------------------------------------------0

You will have to listen to the song to piece this together. I told you
it was my first tab so go easy on the setup.

Mmmmmmmmmm
1. and with the early dawn moving right a long couldn't buy an eyefull
of sleep and in the aching night under satelites I was not received.
2. built with stloen parts, a telephone in my heart. some one get me a
priest to put my mind to bed. This ringing in my head, is this a cure
or is this a disease?
3. and in the after birth on the quiet earth let the stains re-mind you
You thought you made a man, you better think again before my role defines
you
Chorus: Nail in my hand from my creator you gave me life now show me how
to live.
by:josh
band:Audioslave
album:Audioslave
song:Show Me How To Live
tuning:D A D G B E
date:November 25, 2002

..by the way the tuning came strait from tom morello's mouth in guitar world

key:
~ = hold
* = rest
tp= tremlo pick
b = bend
h = hammer on
p = pull off

intro : light dist
E------------
B------------
G-7----------
D-7--------2-
A-5--------2-
D----------2-

pre verse : heavy distortion
E---------------------------------------------------------------------*---
B---------------------------------------------------------------------*---
G---------------------------------------------------------------------*---
D-----0h2---------------------------------------------0h2-------------*---
A---------------------------------------------------------------------*---
D-0h2-----0--2--0--2--0--2---7b-8-7-5-7-5-2-2-5-2-0h2-----0-2-0-2-0-2-*---

verse : heavy distortion and palm muted
E---------------------------------------------------------------------*---
B---------------------------------------------------------------------*---
G---------------------------------------------------------------------*---
D-----0h2---------------------------------------------0h2-------------*---
A---------------------------------------------------------------------*---
D-0h2-----0--2--0--2--0--2---7b-8-7-5-7-5-2-2-5-2-0h2-----0-2-0-2-0-2-*---

prechorus
E------------
B------------
G------------
D-x-x--x-x-x-
A-x-x--x-x-x-
D-x-x--x-x-x-

chorus : heavy distortion
E------------------
B------------------
G------------------
D-2--5---------0-2-
A-2--5-------------
D-2--5-2p0-2p0-----

solo : dist with some effect
just play from 2:30 to 2:50
E------
B------
G--9t--
D------
A------
D------

breakdown :
E------------
B------------
G-7----------
D-7--------2-
A-5--------2-
D----------2-

outro 1 :
play from 3:59 to 4:17
E--------------
B--------------
G--------------
D-2--2--2-2--2-
A-2--2--2-2--2-
D-2--2--2-2--2-

outro 2 : this is the part where chris's
voice changes key a few times im not sure if
tom's is playin during it or not but this matches
up so even if hes not playin still sounds right

E---------------------------
B---------------------------
G-9-----7-----4--2--0-------
D----------------------0--2-
A---------------------------
D---------------------------


order:
intro 4x
preverse 2x
verse 4x
prechorus 1x
chorus 8x
verse 2x
prechorus 1x
chorus 8x
solo
breakdown 8x
chorus 8x
outro 1
outro 2 1x
-----------------------------------------------------------
SHOW ME HOW TO LIVE - AUDIOSLAVE
-----------------------------------------------------------

By: YAHOANET
Tuning: D A D G B E
Date: December 1st 2002
Key:
b = bend
h = hammer on
p = pull off

Intro
(4x)
E----------------------------------------------------------
B----------------------------------------------------------
G----------------------------------------------------------
D--7----2--------------------------------------------------
A--5----2--------------------------------------------------
D-(7)---2--------------------------------------------------

E----------------------------------------------------------
B----------------------------------------------------------
G----------------------------------------------------------
D--------2-------------------------------------------------
A------2---------------------------------x0----------------
D--0-2-------x0---2--xx0---2---x7b9-7-------2---2-5-0---0--

E----------------------------------------------------------
B----------------------------------------------------------
G----------------------------------------------------------
D--------2-------------------------------------------------
A------2---------------------------------------------------
D--0-2-------x0---2--xx0---2-------------------------------

m m m m m m m .......

E----------------------------------------------------------
B----------------------------------------------------------
G----------------------------------------------------------
D--------2-------------------------------------------------
A------2---------------------------------x0----------------
D--0-2-------x0---2--xx0---2---x7b9-7-------2---2-5-0---0--

E----------------------------------------------------------
B----------------------------------------------------------
G----------------------------------------------------------
D--------2-------------------------------------------------
A------2---------------------------------------------------
D--0-2-------x0---2--xx0---2-------------------------------

VERSES 1,2,3
(Verses 1 & 3: mute guitar, Verse 2: partial mute)
E----------------------------------------------------------
B----------------------------------------------------------
G----------------------------------------------------------
D--------2-------------------------------------------------
A------2----------------------------------0----------------
D--0-2-------x0---2--xx0---2---x7b9-7---2---2---2-5-0---0--

1. And with the early dawn moving right along
2. Built with stolen parts a telephone in my heart
3. And in the after birth on the quiet earth

E----------------------------------------------------------
B----------------------------------------------------------
G----------------------------------------------------------
D--------2-------------------------------------------------
A------2---------------------------------------------------
D--0-2-------x0---2--xx0---2-------------------------------

1. I couldn't buy an eyeful of sleep
2. Someone get me a priest
3. Let the stains remind you

E----------------------------------------------------------
B----------------------------------------------------------
G----------------------------------------------------------
D--------2-------------------------------------------------
A------2----------------------------------0----------------
D--0-2-------x0---2--xx0---2---x7b9-7---2---2---2-5-0---0--

1. And in the aching night under satellites
2. To put my mind to bed this ringing in my head
3. You thought you made a man you better think again
-> 2nd & 3rd time, leads to chorus
E----------------------------------------------------------
B----------------------------------------------------------
G----------------------------------------------------------
D--------2---------------------x---x---x--xx--xxx----------
A------2-----------------------x---x---x--xx--xxx----------
D--0-2-------x0---2--xx0---2---x---x---x--xx--xxx----------

1. I was not received -> 2nd VERSE
2. Is this a cure is or is this a disease -> CHORUS
3. Before my role defines you -> CHORUS (and then SOLO)

CHORUS (2x)

E----------------------------------------------------------
B----------------------------------------------------------
G----------------------------------------------------------
D--2---5-----------0h2-------------------------------------
A--2---5---------------------------------------------------
D--2---5---2p0h2p0-----0-----------------------------------

Nail in my hand
from my creator
you gave me life
now show me how to live

SOLO

(8 bars)
-3--3--3--3- (3rds), but done with guitar effects

E--777777777777--------------------------------------------
B--555555555555--------------------------------------------
G--444444444444--------------------------------------------
D----------------------------------------------------------
A----------------------------------------------------------
D----------------------------------------------------------

(1 bar)
E----------------------------------------------------------
B----------------------------------------------------------
G----------------------------------------------------------
D--5-------------------------------------------------------
A--5-------------------------------------------------------
D--5-------------------------------------------------------

VERSE 4
(8x)
E----------------------------------------------------------
B----------------------------------------------------------
G--7-------------------------------------------------------
D--7----2--------------------------------------------------
A--5----2--------------------------------------------------
D-------2--------------------------------------------------


And in you waiting hands I will land
And roll right out of my skin
And in your final hours I will stand
Ready to begin
Ready to begin
Ready to begin
Ready to begin

CHORUS (2x)

E----------------------------------------------------------
B----------------------------------------------------------
G----------------------------------------------------------
D--2---5-----------0h2-------------------------------------
A--2---5---------------------------------------------------
D--2---5---2p0h2p0-----0-----------------------------------

Nail in my hand
from my creator
you gave me life
now show me how to live

OUTRO

E----------------------------------------------------------
B----------------------------------------------------------
G----------------------------------------------------------
D--2--------------2----------------------------------------
A--2--------------2----------------------------------------
D--2--------------2----------------------------------------

show me how to live
show me how to live
show me how to live
show me how to live

- fihishes with voice effects -
===========================================================
Audioslave

Show me how to live

Drop D tuning

Intro Verse
n ^
E:---------------|------------------------------------------|
B:--(3)----------|------------------------------------------|
G:---2-----------|------------------------------------------|
D:---0--x-2------|----0h2-----------------------------------|
A:---5--x-2------|---------x-0-2-xx-0-2-x--------------3p0--|
D:------x-2------|-0h2-(2)-x-0-2-xx-0-2-x-7/8-7-x-5p2--3p0--|


E:------------------------------------------|
B:------------------------------------------|
G:------------------------------------------|
D:----0h2-----------------------------------|
A:---------x-0-2-xx-0-2---------------------|
D:-0h2-(2)-x-0-2-xx-0-2---------------------|


Chorus
^
E:-----------------------|
B:-----------------------|
G:-----------------------|
D:---2---5--------0h2--0-|
A:---2---5-------------0-|
D:---2---5-0h2-0h2-(2)-0-|


Breakdown part


A stuttering tremolo with an effect Ive omly seen/heard on a
zoom 505, step appregio (from memory, got rid of the noisy
thing awhile ago, damn it).

The rest your've already learnt, sweet as.

Comments welcome, as claiming perfect renditions
of Morello's playing is just foolishness.