Audioslave — What You Are

На этой странице Вы можете ознакомиться с 3 версиями подбора аккордов для гитары к песне "What You Are" группы (исполнителя) "Audioslave".

Artist - Audioslave
Song - What you are

NOTE - its drop B tuning for a 4 string bass. (tune the E string to the
10th fret to the A string.)

String order top to bottom of fret board - B A D G

It's an easy song.

~~~ = Let ring

|---------------------------------------------|
|---------------------------------------------|
|---------------------------------------------|
|----------------------------------------10---|
1 2 3 4

|-------------------------------------|
|-------------------------------------|
|-------------------------------------|
|--12~~~~~~~~~~~~~~~~~~~~~~~~~~~~~~~~~|
1 2 3 4

|--------------------------------------|----------------------------------------|
|--------------------------------------|----------------------------------------|
|--------------------------------------|----------------------------------------|
|-5~~~~~~~~~~~~~~~~~~~~~~~~~~~~~~~~~~~~|-3~~~~~~~~~~~~~~~~~~~~~~~~~~~~~~~~~~~~~~|
1 2 3 4 1 2 3 4

|-------------------------------------|
|-------------------------------------|
|-------------------------------------|
|-2~~~~~~~~~~~~~~~~~~~~~~~~~~~~~~~~~10|
1 2 3 4

|--------------------------------------|----------------------------------------|
|--------------------------------------|----------------------------------------|
|--------------------------------------|----------------------------------------|
|-12~~~~~~~~~~~~~~~~~~~~~~~~~~~~~~~~~~~|-5~~~~~~~~~~~~~~~~~~~~~~~~~~~~~~~~~~~~~~|
1 2 3 4 1 2 3 4

|-------------------------------------|
|-------------------------------------|
|-------------------------------------|
|-3~~~~~~~~~~~~~~~~~~~~~~~~~~~~~~~~~~~|
1 2 3 4

|--------------------------------------|-----------------------------------------|
|--------------------------------------|-----------------------------------------|
|--------------------------------------|-----------------------------------------|
|-2~~~~~~~~~~~~~~~~~~~~~~~~~~~~~~~~~10~|--12---12---12---12---12---12---12---12--|
1 2 3 4 1 2 3 4

|-------------------------------------|
|-------------------------------------|
|----7---7---7---7---7---7---7---7----|
|-------------------------------------|
1 2 3 4

|--------------------------------------|----------------------------------------|
|--------------------------------------|--7----7----7----7----7----7----7----7--|
|----5---5---5---5---5---5---5---5-----|----------------------------------------|
|--------------------------------------|----------------------------------------|
1 2 3 4 1 2 3 4

|-------------------------------------|
|----9---9---9---9---9---9---9---9----|
|-------------------------------------|
|-------------------------------------|
1 2 3 4

|--------------------------------------|-----------------------------------------|
|----9---9---9---9---9---9---9---9-----|-----------------------------------------|
|--------------------------------------|--10---10---10---10---10---10---10---10--|
|--------------------------------------|-----------------------------------------|
1 2 3 4 1 2 3 4

|-------------------------------------|
|-------------------------------------|
|----9---9---9---9---9---9---9---9----|
|-------------------------------------|
1 2 3 4

|--------------------------------------|----------------------------------------|
|--------------------------------------|----------------------------------------|
|--------------------------------------|----------------------------------------|
|---12---12---12---12---7---7---7---7--|---5---5----------3----3----3---3---3---|
1 2 3 4 1 2 3 4

|--------------------------------------|----------------------------------------|
|--------------------------------------|----------------------------------------|
|--------------------------------------|----------------------------------------|
|---12---12---12---12---7---7---7---7--|---5---5----------3----3----3---3---3---|
1 2 3 4 1 2 3 4

|--------------------------------------|----------------------------------------|
|--------------------------------------|----------------------------------------|
|--------------------------------------|----------------------------------------|
|---12---12---12---12---7---7---7---7--|---5---5----------3----3----3---3---3---|
1 2 3 4 1 2 3 4

|--------------------------------------|----------------------------------------|
|--------------------------------------|----------------------------------------|
|--------------------------------------|----------------------------------------|
|----7---7---7---7---7---7---7---7-----|--7-----7-----6-----5--------3------2---|
1 2 3 4 1 2 3 4

|--------------------------------------|----------------------------------------|
|--------------------------------------|----------------------------------------|
|--------------------------------------|--7----7----7----7----7----7----7----7--|
|----12--12--12--12--12--12--12--12----|----------------------------------------|
1 2 3 4 1 2 3 4

|-------------------------------------|
|-------------------------------------|
|---5----5----5----5----5---5---5---5-|
|-------------------------------------|
1 2 3 4

|--------------------------------------|----------------------------------------|
|--------------------------------------|----------------------------------------|
|-----4---4---4---4---4---4---4----0---|--2----2----2----2----2----2----2----2--|
|--------------------------------------|----------------------------------------|
1 2 3 4 1 2 3 4

|-------------------------------------|
|-------------------------------------|
|----7---7---7---7---7---7---7---7----|
|-------------------------------------|
1 2 3 4

|--------------------------------------|----------------------------------------|
|--------------------------------------|----------------------------------------|
|----5---5---5---5---5---5---5---5-----|--4----4----4----4----4----4----4----0--|
|--------------------------------------|----------------------------------------|
1 2 3 4 1 2 3 4

|-------------------------------------|
|-------------------------------------|
|----2---2---2---2---2---2---2---2----|
|-------------------------------------|
1 2 3 4

|----------------------------------|-----------------------------------------|
|----------------------------------|-----------------------------------------|
|---7---7---7---7---7---7--7---7---|---5----5----5----5----5----5----5----5--|
|----------------------------------|-----------------------------------------|
1 2 3 4 1 2 3 4

|---------------------------------|
|--7---7---7---7---7---7---7---7--|
|---------------------------------|
|---------------------------------|
1 2 3 4

|----------------------------------|-----------------------------------------|
|---9---9---9---9---9---9---9---9--|---9----9----9----9----9----9----9----9--|
|----------------------------------|-----------------------------------------|
|----------------------------------|-----------------------------------------|
1 2 3 4 1 2 3 4

|-----------------------------------|
|-----------------------------------|
|---10--10--10--10--10--10--10--10--|
|-----------------------------------|
1 2 3 4

|----------------------------------|------------------------------|
|----------------------------------|------------------------------|
|---9---9---9---9---9---9---9---9--|------------------------------|
|----------------------------------|--12--12--12--12--7--7--7--7--|
1 2 3 4 1 2 3 4

|---------------------------------------|
|---------------------------------------|
|---------------------------------------|
|----5---5----------3----3----3---3---3-|
1 2 3 4

|------------------------------|------------------------------------------|
|------------------------------|------------------------------------------|
|------------------------------|------------------------------------------|
|--12--12--12--12--7--7--7--7--|-----5---5-----------3----3----3----3---3-|
1 2 3 4 1 2 3 4
|------------------------------|------------------------------------------|
|------------------------------|------------------------------------------|
|------------------------------|------------------------------------------|
|--12--12--12--12--7--7--7--7--|-----5---5-----------3----3----3----3---3-|
1 2 3 4 1 2 3 4

|----------------------------------|-------------------------------------|
|----------------------------------|-------------------------------------|
|----------------------------------|-------------------------------------|
|---7---7---7---7---7---7---7---7--|--7-----7-----6-----5------3------2--|
1 2 3 4 1 2 3 4

|---------------------------------|
|---------------------------0-----|
|---2----0---2---2----0-------2---|
|---------------------------------|
1 2 3 4

|---------------------------------|
|---------------------------0-----|
|---2----0---2---2----0-------2---|
|---------------------------------|
1 2 3 4 This part goes something like this but it has
Variations so you might have to work those
|---------------------------------| parts Out yourselves.
|---------------------------0-----|
|---2----0---2---2----0-------2---|
|-0-------------------------------|
1 2 3 4

|---------------------------------|
|---------------------------0-----|
|---2----0---2---2----0-------2---|
|-0-------------------------------|
1 2 3 4

|---------------------------------|
|---------------------------0-----|
|---2----0---2---2----0-------2---|
|-0-------------------------------|
1 2 3 4

|---------------------------------|
|---------------------------0-----|
|---2----0---2---2----0-------2---|
|---------------------------------|
1 2 3 4

|---------------------------------|
|---------------------------0-----|
|---2----0---2---2----0-------2---|
|-0-------------------------------|
1 2 3 4

|---------------------------------|
|---------------------------0-----|
|---2----0---2---2----0-------2---|
|-0-------------------------------|
1 2 3 4

Rest 4 bars.


|------------------------------|--------------------------------------------|
|------------------------------|--------------------------------------------|
|------------------------------|--------------------------------------------|
|--12--12--12--12--7--7--7--7--|-----5---5-----------3----3----3----3----3--|
1 2 3 4 1 2 3 4
|------------------------------|--------------------------------------------|
|------------------------------|--------------------------------------------|
|------------------------------|--------------------------------------------|
|--12--12--12--12--7--7--7--7--|-----5---5-----------3----3----3----3----3--|
1 2 3 4 1 2 3 4
|------------------------------|--------------------------------------------|
|------------------------------|--------------------------------------------|
|------------------------------|--------------------------------------------|
|--12--12--12--12--7--7--7--7--|-----5---5-----------3----3----3----3----3--|
1 2 3 4 1 2 3 4

|---------------------------------|----------------------------------------|
|---------------------------------|----------------------------------------|
|---------------------------------|----------------------------------------|
|--7---7---7---7---7---7---7---7--|--7----7----7----7----7----7----7----7--|
1 2 3 4 1 2 3 4
|------------------------------|-------------------------------------------|
|------------------------------|-------------------------------------------|
|------------------------------|-------------------------------------------|
|--12--12--12--12--7--7--7--7--|----5---5-----------3----3----3----3----3--|
1 2 3 4 1 2 3 4

|------------------------------|-------------------------------------------|
|------------------------------|-------------------------------------------|
|------------------------------|-------------------------------------------|
|--12--12--12--12--7--7--7--7--|-----5---5----------3----3----3----3----3--|
1 2 3 4 1 2 3 4
|------------------------------|-------------------------------------------|
|------------------------------|-------------------------------------------|
|------------------------------|-------------------------------------------|
|--12--12--12--12--7--7--7--7--|-----5---5----------3----3----3----3----3--|
1 2 3 4 1 2 3 4

|----------------------------------|---------------------------------------|
|----------------------------------|---------------------------------------|
|----------------------------------|---------------------------------------|
|---7---7---7---7---7---7---7---7--|--7-----7-----6-----5-------3------2---|
1 2 3 4 1 2 3 4

|--------------------------------------|
|--------------------------------------|
|--------------------------------------|
|-0~~~~~~~~~~~~~~~~~~~~~~~~~~~~~~~~~~~~| Hold note as long as possible
1 2 3 4

That's about it. Pretty sure most of its right.
Enjoy!
by:josh
band:Audioslave
album:Audioslave
song:What You Are
tuning:E A D G B E
date:November 25, 2002

this is an awsome song you should check it out.....simple yet awsome...

intro/verse : clean
E----------------------------------------------------------------
B----------------------------------------------------------------
G----------------------------------------------------------------
D----------------------------------------------------------------
A---9---9---9-----7---7---7------12----12----12------7---7---7---
E-7---7---7---7-5---5---5---5-10----10----10----10-5---5---5---0-

chorus : heavy distortion
E-------------------------------------
B-------------------------------------
G-------------------------------------
D-9-9-9-9-7-7-7-7-12-12-12-12-7-7-7-7-
A-9-9-9-9-7-7-7-7-12-12-12-12-7-7-7-7-
E-7-7-7-7-5-5-5-5-10-10-10-10-5-5-5-5-

postchorus : heavy distortion
E--------------------------------
B--------------------------------
G--------------------------------
D-9-9-9-9-9-9-12-/-9-/-7-/-9-/-7-
A-9-9-9-9-9-9-12-/-9-/-7-/-9-/-7-
E-7-7-7-7-7-7-10-/-7-/-5-/-7-/-5-

solo : with some kinda pedal it isnt any that i own so....
E-----------------------------------------------------------
B-----------------------------------------------------------
G---4-2-4-7-4-2-4---4-2-4-7-4-2---4-2-4-7-4-2-4-4-4-4-4-4-4-
D-----------------------------------------------------------
A-2---------------2-------------2---------------2-2-2-2-2-2-
E-----------------------------------------------------------

breakdown : clean and played light
E-------------------------------------
B-------------------------------------
G-------------------------------------
D-9-9-9-9-7-7-7-7-12-12-12-12-7-7-7-7-
A-9-9-9-9-7-7-7-7-12-12-12-12-7-7-7-7-
E-7-7-7-7-5-5-5-5-10-10-10-10-5-5-5-5-

outro : heavy distortion
E--------------------------
B--------------------------
G--------------------------
D-9-9-9-9-9-9-12-9-7-9-7-9-
A-9-9-9-9-9-9-12-9-7-9-7-9-
E-7-7-7-7-7-7-10-7-5-7-5-7-

order:
intro/verse 6x
chorus 3x
postchorus 1x
intor/verse 6x
chorus 3x
postchorus 1x
solo 2x
breakdown 4x
chorus 3x
postchorus 1x
chorus 3x
outro 1x
by:josh
band:Audioslave
album:Audioslave
song:What You Are
tuning:1 and a half steps down with drop d (B,F#,B,E,G#,C#)
date:December 5, 2002

key
^ = move wah quick to make the woah sound
* = move the whammy bar really fast up and down to make the shaky sound
= slide
i just realized this song is in drop b so here it is..

intro/verse : clean
C#-----------------------------------------------------------------------
G#-----------------------------------------------------------------------
E------------------------------------------------------------------------
B-----7---7---7---7---5---5---5---5---3---3---3---3-----5---5---5---5----
F#--5---5---5---5---5---5---5---5---5---5---5---5---5-3---3---3---3------
B---------------------------------------------------------------------5--

chorus : heavy distortion
C#-----------------------
G#-----------------------
E---7-7-7--5-5-5-10--9--
B---7-7-7--5-5-5-10--9--
F#--5-5-5--3-3-3--8--7--
B------------------------

postchorus : heavy distortion
C#----------------------------------
G#----------------------------------
E---7-7-7-7-7-7-10--7--5--7--5--
B---7-7-7-7-7-7-10--7--5--7--5--
F#--5-5-5-5-5-5--8--5--3--5--3--
B-----------------------------------

solo : ok here the deal on the solo you need a wah wah pedal,
a whammy pedal, and a whammy bar on your guitar.....and the parts right
after the low B notes he says he just plucks the strings behind the nut
form top to bottom but since most people down have a pickup behind the
nut just play it like this..on the whammy bar part hit the whammy pedal

C#-----------------------------------------------------------------
G#-----------------------------------------------------------------
E-----7-5-7-10-7-5-7----7-5-7-10-7-5----7-5-7-10-7-5-7-7*7*7*7*7*--
B------------------------------------------------------------------
F#-----------------------------------------------------5*5*5*5*5*--
B--0^----------------0^--------------0^----------------------------

breakdown : clean and played light
C#---------------------------
G#---------------------------
E----------------------------
B---7-7-7-5-5-5-3-3-3-5-5-5--
F#--5-5-5-5-5-5-5-5-5-3-3-3--
B----------------------------

outro : heavy distortion
C#--------------------------------------
G#--------------------------------------
E---7-7-7-7-7-7-10--7--5--7--5--7--
B---7-7-7-7-7-7-10--7--5--7--5--7--
F#--5-5-5-5-5-5--8--5--3--5--3--5--
B---------------------------------------

order:
intro/verse 6x
chorus 3x
postchorus 1x
intor/verse 6x
chorus 3x
postchorus 1x
solo 2x
breakdown 4x
chorus 3x
postchorus 1x
chorus 3x
outro 1x