Auf Der Maur — Followed The Waves

На этой странице Вы можете ознакомиться с 2 версиями подбора аккордов для гитары к песне "Followed The Waves" группы (исполнителя) "Auf Der Maur".

Hey AdM fans!
This is how I think the song should go:
(there is a part for guitar #4 but its too hard to recognise-probanly done by the awsome Josh Homme)

(/ /=pick moving up and down fast on one string)
(=slide)

Mellissa Auf Der Maur singing then:
Guitar #1
E--14-14--14--14-/14 14 14 14/-15-|
B-------12--12--------------------|
G---------------------------------|(reapeatx8)
D---------------------------------|
A---------------------------------|
E---------------------------------|

then after 4 of those:
Guitar #2
E----------------------|
B----------------------|
G-17-19-21-19-17-19-14-|(repeatx8)
D-0 -0 -0 -0 -0 -0 -0
A---------------------|
E---------------------|

then after 2 of those:
Guitar #3
E---------------------------------|
B---------------------------------|
G---------------------------------|(repeatx6)
D1212121212121212131212121212121212
A1212121212121212131212121212121212
E1010101010101010111010101010101010

then a bass and drums bit with the same rythum (x4)
then:

Guitar #1
Guitar #2
Guitar #3
E-------------------------|
B-------------------------|
G-------------------------|(repeatx4)
D12-12-12-121312-12-12-12-|
A12-12-12-121312-12-12-12-|
E10-10-10-101110-10-10-10-|

then:

Guitar #1
Guitar #2
Guitar #3
E-----------------------------------------------------|
B-----------------------------------------------------|
G-----------------------------------------------------|
D-----------------------------------------------------|
A9-9-10-10-5-5--9-9-1010-7--7--9-9-1010-7--7--5-5-7-7-|
E7-7-8-8--3--3--7-7-8-8--5--5--7-7-8-8--5--5--3-3-5-5-|
-continued-
E--------------|
B--------------|
G--------------|
D--------------|
E0--3--0--3--0-|
A0--3--0--3--0-|


Return to start but: Guitar #2 doesn't come in till x4
No Guitar #3

then skip to:

Guitar #1
Guitar #2
Guitar #3
E-----------------------------------------------------|
B-----------------------------------------------------|
G-----------------------------------------------------|
D-----------------------------------------------------|
A9-9-10-10-5-5--9-9-1010-7--7--9-9-1010-7--7--5-5-7-7-|
E7-7-8-8--3--3--7-7-8-8--5--5--7-7-8-8--5--5--3-3-5-5-|
-continued-
E--------------|
B--------------|
G--------------|
D--------------|
E0--3--0--3--0-|
A0--3--0--3--0-|

Guitar #3
E---------------------------------|
B---------------------------------|
G---------------------------------|(repeatx6)
D1212121212121212131212121212121212
A1212121212121212131212121212121212
E1010101010101010111010101010101010

then:

Guitar #1
Guitar #2
Guitar #3
E-------------------------|
B-------------------------|
G-------------------------|(repeatx4)
D12-12-12-121312-12-12-12-|
A12-12-12-121312-12-12-12-|
E10-10-10-101110-10-10-10-|

then:

Guitar #1
Guitar #2
Guitar #3
E-----------------------------------------------------|
B-----------------------------------------------------|
G-----------------------------------------------------|
D-----------------------------------------------------|
A9-9-10-10-5-5--9-9-1010-7--7--9-9-1010-7--7--5-5-7-7-|
E7-7-8-8--3--3--7-7-8-8--5--5--7-7-8-8--5--5--3-3-5-5-|
-continued-
E--------------|
B--------------|
G--------------|
D--------------|
E0--3--0--3--0-|
A0--3--0--3--0-|


That is at least this songs basic shell but as you can tell this is about all i can
so try to enjoy

for any coments/questions e-mail me at: adrian.osullivan@ntlworld.com
or go to my website @ www.adriansworld.0catch.com

This has been tabbed by Adrian O'Sullivan
America
www.aufdermaur.com

Artist = Auf der Maur
Song = Followed the waves
Album = Auf der Maur

This my very first tab of Auf der Maur's album version of Followed the waves.
Listen to the cd for timings and enjoy!!!

Part 1

E --------------------------------------------------
B --------------------------------------------------
G -------14-----14-----14--14-14-14-14-15---
D ---12-----12-----12----------------------------
A --------------------------------------------------
D --------------------------------------------------

Part 2 (Played on two guitars)

(A)
E --------------------------------------------------
B --------------------------------------------------
G --17--19--21--19--17--17--19--14----------
D ---0----0---0----0---0---0----0----0----------
A --------------------------------------------------
D --------------------------------------------------

(B)
E ----------------------------------------------------
B ----------------------------------------------------
G ----------------------------------------------------
D -0-0-0-0-0-0-0--0/1---0-0-0-0-0-0-0--0/1---
A -0-0-0-0-0-0-0--0/1---0-0-0-0-0-0-0--0/1---
D -0-0-0-0-0-0-0--0/1---0-0-0-0-0-0-0--0/1---


Verse

E -------------------------------------------
B -------------------------------------------
G -------------------------------------------
D -0-0-0-0-0-0-0--0/1---0-0-0-0-0-0-0--0/1---
A -0-0-0-0-0-0-0--0/1---0-0-0-0-0-0-0--0/1---
D -0-0-0-0-0-0-0--0/1---0-0-0-0-0-0-0--0/1---

Verse Part 2
E --------------------------------------------
B --------------------------------------------
G --------------------------------------------
D --12-12-12---12-13-12---12-12-12------------ Play twice
A --12-12-12---12-13-12---12-12-12------------
D --12-12-12---12-13-12---12-12-12------------

Chorus

E -------------------------------------------
B -------------------------------------------
G -------------------------------------------
D ------7-----8---0-0---7-7-7--8-8-8--3-3----
A ----7-----8-----0-0---7-7-7--8-8-8--3-3----
D --7-----8-------0-0---7-7-7--8-8-8--3-3----


E ------------------------------------------
B ------------------------------------------
G ------------------------------------------
D --7-7-7--8-8-8--3-3----3-3--5-5--0~-------
A --7-7-7--8-8-8--3-3----3-3--5-5--0~-------
D --7-7-7--8-8-8--3-3----3-3--5-5--0~-------

After that the song goes as follows:

Part 1 (with a weird fill played over the top of it)
Part 2
Verse
Verse part 2
Verse part 2 palm muted
Chorus x2

When the chorus finishes there's some singing without music. After the first couple of lines play

Break

E ------------------------------------------------------
B ------------------------------------------------------
G ------------------------------------------------------ Play 3 times
D --1--0------------------------------------------------
A --1--0------------------------------------------------
D --1--0------------------------------------------------

Then play Part 2 before the solo, which I don't yet know (if anyone knows it let me
know). Verse Pt 2 and the chorus are repeated (just once). Play break and finish.

Thank u for listenin!

Jiggy