Auf Der Maur — Lightning Is My Girl

AUF DER MAUR LIGHTNING IS MY GIRL BASS TABS

Standard tuning

INTRO
G -----------------------------------------------|
D -----------------------------------------------|
A ------------------------12---------------------|
E -----0-3/7(-)----5555555/----------------------|

G ----------------------------------------------|
D ----------------------------------------------|
A --12-12-12-13-12-12-12-13---------------------|
E ----------------------------------------------|

G ----------------------------------------------|
D ----------------------------------------------|
A ----------------------------------------------|
E --5-5-5-6-5-5-5-6-----------------------------|

Verse
G ----------------------------------------------|
D ----------------------------------------------|
A --------------33*-----------------------------|
E --55*-55*-55*---------------------------------|

Chorus
G ----------------------------------------------|
D ----------------------------------------------|
A ----------------------------------------------|
E ---4-3-3-3-3-6-6-6-6-5-5-5-5-5-5-5------------|

Bridge
G ----------------------------------------------|
D ----------------------------------------------|
A --------------12*-12*-12*-12*-13*-12*12*12*---|
E -----55555555/--------------------------------|

Outro
G ----------------------------------------------|
D ----------------------------------------------|
A ----------------------------------------------|
E -----5-5-5-5-5-5/8----------------------------|


/ slide
* cut off
(-) let ring