Auf Der Maur — Skin Receiver

AUF DER MAUR_ SKIN RECEIVER BASS TABS

Standard tuning

Verse (let's see a mortal type....)
G -------------------------------------|
D -------------------------------------|
A -------------------------------------|
E --222333222333222333222323-----------|

Verse 2nd part (receiver)
G -------------------------------------|
D ----5-3--------5---------------------|
A -------5-3---5-----------------------|
E --3--------5-------------------------|

Chorus
G -------------------------------------|
D -------------------------------------|
A --3----------------------------------|
E ---5-3-1/6-3-50505650----------------|


That's it!
this is a correct tab!!!!