Auf Der Maur — Taste You

new group : Melissa Auf Der Maur
http://www.aufdermaur.com/

-----------------------------------------------------------------------
Melissa Auf der Maur - Taste you
-----------------------------------------------------------------------
Tabbed by: Pascal M Frenette
Email: ludohvik@msn.com
With the help of: Karlin (thanx for putting me on the right way...)

Tuning : EADGBe (Standard)
Notes: Rythms not accurate so listen to the cd.
I also put both lyrics (english & franзaise)

(Intro/verse) Palm muted
E--------------------------------------
B--------------------------------------
G-5555555/777777777--------------------
D-7777777/999999999--9999999/77777777--
A-xxxxxxx/xxxxxxxxx--7777777/55555555--
E-5555555/777777777-(7777777/55555555)-

(Post-Verse)
E-----------------------------------------------------
B-----------------------------------------------------
G-----------------------------------------------------
D-7777/10101010-9999/12121212-7777/10101010-9999/7777-
A-7777/10101010-9999/12121212-7777/10101010-9999/7777-
E-5555/8-8-8-8--7777/10101010-5555/8-8-8-8--7777/5555-

(Riff 1)
E----------------------------------------
B---8-10---8-10---10----8-10---8-10-8-10- X3
G-9------9------9-----9------9-----------
D----------------------------------------
A----------------------------------------
E----------------------------------------

e------------------------
B---8-10-8-10/12-10-8-10-
G-9----------------------
D------------------------
A------------------------
E------------------------

(Chorus)
E--------------------------------
B--------------------------------
G--------------------------------
D-7777--101010-333--2222--555/10-
A-7777--101010-333--2222--555/10-
E-5555--8-8-8--111--0000--333/8--

E-----------------------------------
B-----------------------------------
G-----------------------------------
D-7777-3333-10101010-10101010-5555--
A-7777-3333-10101010-10101010-5555--
E-5555-1111-8-8-8-8--7-7-7-7--3333--

E--------------------------
B--------------------------
G--------------------------
D-7777-3333-2222-5555/1010-
A-7777-3333-2222-5555/1010-
E-5555-1111-0000-3333/8-8--

E---------------------------
B---------------------------
G---------------------------
D-7777-3333-10101010-9999-7-
A-7777-3333-10101010-9999-7-
E-5555-1111-8-8-8-8--7777-5-

(Solo)
E---------------------------------------------------------------
B----8-12-8-10~---8-10-8---8-10-8-------8-10/12-8---10--8---10--
G-/9------------------------------9---9-----------9-------9-----
D---------------------------------------------------------------
A---------------------------------------------------------------
E---------------------------------------------------------------

(Riff 2)
E--------------------------------------------
B-----8---8-----8---8------------------------
G---9---------9--------9-7--7-5-4----4-5-----
D-7-----7---7-----7----------------5-----5/7-
A--------------------------------------------
E--------------------------------------------

(Intro)
(Verse)
Oh my love, oh my love Mon amour, mon amour
I can't hear you my love J't'entends pas mon amour
Tell me where have you gone? Dis-moi ou t'es allй?
Oh my love, oh my love Mon amour, mon amour
I can't taste you my love, J'te sent pas mon amour
Tell me what have I done? Dis-moi ce que j'ai fait?

(Post-Verse)
Plug it in, so I can digest you Branche-toi et je vais t'avaler
I will taste you I will taste you

(Verse w/ Riff 1)
Far away, far away T'es si loin, t'es si loin
I can't feel you today J'te goыte pas du tout
I need healing my love Faut me guйrir amour
Appetite running fast J'ai de plus en plus faim
Following my gut Je suis mon instinct
Turning up every rock Зa me met а l'envers

You're disappearing my love, Tu t'effaces mon amour
I need louder than this Tu n'es plus qu'une ombre
Please fill me up Oh reviens-moi
Goof tidings I bring J'ai de bonnes nouvelles
To you and your sins J'oublis tes pкchйs
I'll forgive Je te pardonnes

(Chorus)
Come to me Viens me voir
Plug it in, so I can digest you Branches-toi et je vais t'avaler
I will taste you (Ooh ooh) I will taste you (Ooh ooh)
My appetite in that hole Mon appйtit, il est sans fin
Tempt you with it now Laisses-moi te tenter
I will taste you (Ooh ooh) I will taste you (Ooh ooh)

(Solo)

(Verse)
Please shake me and tug, Secoue-moi, oh prends-moi
I need shaking my love J'ai besoin de зa
Can't you be the one? Plus fort qu'une bombe
I can't fake it my love, Je ne veux pas faire semblant
I need filling come on, Tu es celui que j'attends
I need it louder than bombs Oh remplis-moi

(Chorus)
Come to me Viens me voir
Plug it in, so I can digest you Branches-toi et je vais t'avaler
I will taste you (Ooh ooh) I will taste you (Ooh ooh)
My appetite in that hole Mon appйtit, il est sans fin
Tempt you with it now Laisses-moi te tenter
I will taste you (Ooh ooh) I will taste you (Ooh ooh)

(Solo)

(Verse w/ solo)
Feel that movement my love? Oh sent-tu cette vague?
Pulling up from above Cette vague d'en haut
Are you listening love? Entends-tu mon amour?
My emptiness in a way, Le creux de mon vide
Is tempting, T'attire
Guiding you from my gut Mon vent qui te guide

(Verse w/ solo)
I will taste you
I will taste you, I've got a big mouth
I will taste you, I've got a big mouth
I will taste you, I will taste you...

(Verse w/ riff 2)
Oh my love, oh my love Mon amour, mon amour
I can't hear you my love J't'entends pas mon amour
Tell me where have you gone? Dis-moi ou t'es allй?
Oh my love, oh my love Mon amour, mon amour
I can't taste you my love, J'te sent pas mon amour
Tell me what have I done? Dis-moi ce que j'ai fait?