Authority Zero — One More Minute

На этой странице Вы можете ознакомиться с 2 версиями подбора аккордов для гитары к песне "One More Minute" группы (исполнителя) "Authority Zero".

Song: One More Minute
Artist: Authority Zero
Tabber: Johnny the Bay

RIFF 1 played in verse chorus and intro

e|- - -7- - - - - -3- - - - -2 - - - - - - - - - - - - - - - - - - - - - - - - - - - - - - - - - - - - - -
- - - - -|
B|- - 7- - - - - -3 - - - - -2 - - - - - - - - - - - - - - - - - - - - - - - - - - - - - - - - - - - - - -
- - - -|
G|- - 7- - - - - -4 - - - - -3- - - - - - - - - - - - - - - - - - - - - - - - - - - - - - - - - - - - - -
- - - - -|
D|- - 9- - - - - -5 - - - - -4 - - - - - - - - - - - - - - - - - - - - - - - - - - - - - - - - - - - - - -
- - - - -|
A|- - - - - - - - - - - - - - - - - - - - - - - - - - - - - - - - - - - - - - - - - - - - - - - - - - - -
- - - - - - -|
E |- - - - - - - - - - - - - - - - - - - - - - - - - - - - - - - - - - - - - - - - - - - - - - - - - - - -
- - - - - - -|


RIFF 2 played in bridge and in the outro

e|- - - 2- - - -3 - - - 2 - - - - - - - - - - - - - - - - - - - - - - - - - - - - - - - - - - - - - - - -
- - -- - - |
B|- - -2 - - - 3- - - -2- - - - - - - - - - - - - - - - - - - - - - - - - - - - - - - - - - - - - - - - -
- - - --- |
G|- - -4 - - - 4- - - -3 - - - - - - - - - - - - - - - - - - - - - - - - - - - - - - - - - - - - - - - - -
- - - - -|
D|- - -4- - - -5 - - -4 - - - - - - - - - - - - - - - - - - - - - - - - - - - - - - - - - - - - - - - - -
- - - - -|
A|- - -2 - - - 5- - - -4- - - - - - - - - - - - - - - - - - - - - - - - - - - - - - - - - - - - - - - - -
- - - - - |
E |- - -x - - -3- - - -2- - - - - - - - - - - - - - - - - - - - - - - - - - - - - - - - - - - - - - - - -
- - - - --|
Heres my version, its not 100% correct so I'm sorry, and its hard to get the
strumming pattern down (listen to song) but the whole song is played with wah effect

Intro/Verse

E----2-222------3-333-----2-222----------------------------------------
B----3-333------3-333-----2-222----------------------------------------
G----4-444------4-444-----3-333----------------------------------------
D----4-444------5-555-----4-444----------------------------------------
A----2-222------5-555-----4-444----------------------------------------
E----X----------3-333-----2-222----------------------------------------

Chorus

E----7-77--------5-55---------3-33-----------
B----8-88--------7-77---------3-33-----------
G----7-77--------7-77---------4-44-----------
D----9-99--------7-77---------5-55-----------
A----7-77--------5-55---------5-55-----------
E----X-----------X------------3-33-----------

Solo

e---------------------------------------------------------------------------
b---------------------------------------------------------------------------
g-----------------------------------------4--4--2--0-----2--2--0------------
d---2--2--2--0--0--0------------0--0--0--2---------------0------------4--5--
a---------------------------------------------------------------------------
e------------------3--3--3--------------------------------------------------

part 2 (notes are picked more than I indicated, listen to it to figure it out.
Last high part gets lost in the song, but I did my best to figure it out):
e12--12--12--10-10-10--------------------------------------------------------
b---------------------12--10b11----------------------------------------------
g---------------------------------12--9--9--12--9--12--9--9--12--9--12--9--0-
d----------------------------------------------------------------------------
a----------------------------------------------------------------------------
e----------------------------------------------------------------------------


Song Order:
Intro
Verse
Chorus
Verse
Chorus
Verse
Solo (w/ verse)
Chorus