Autopilot Off — Missing The Innocence

На этой странице Вы можете ознакомиться с 2 версиями подбора аккордов для гитары к песне "Missing The Innocence" группы (исполнителя) "Autopilot Off".

Autopilot Off - Missing The Innocence
Album: Looking Up
Tuning: E A D G
Tabbed By: Dean K. (projectwyze13@hotmail.com)

Intro/Verse
G: -------------------------------------
D: -------------------------------------
A: -------------------------------------
E: --0000--77--99--5555--99--77---------

Chorus
G: -----------------------------------------------
D: -----------------------------------------------
A: -----------------------------------------------
E: --9999999--7--55555555--0000--7777--5555--7777-

Bridge
G: ------------------------------
D: ------------------------------
A: --7777------------------------
E: ----------7777--9999--5555----
Song: Missing the innocence
Band: Autopilot off
Album: Looking up
Tabbed by: Petter B. (ptberget@hotmail.com)

slides / (up) (down)



Intro
e|-------------------------------------------------------------------------|
B|-------------------------------------------------------------------------|
G|----/-9-9--11-/-9-9--11-11-11-------------------------------9----------|
D|----/-9-9--11-/-9-9--11-11-11--11-11--9-9----x3-and-end-on--9-let-ring-|
A|----/-7-7---9-/-7-7--13-13-13--11-11--9-9-------------------7----------|
E|----------------------------------9--9--7-7------------------------------|

Verse

After the singer sings: I wish I wasn’t waiting, play this:
e|-------------------|
B|-------------------|
G|------9------------|
D|---9---------------|
A|-------------------|
E|-------------------|

And then this:
e|-------------------------------------------------------------------------|
B|-------------------------------------------------------------------------|
G|-----0-0-9-0-0-9---------------------------------------------------------|
D|-----0-0-9-0-0-9----Trough-the-whole-verse-------------------------------|
A|-----0-0-7-0-0-7---------------------------------------------------------|
E|-------------------------------------------------------------------------|
P.M. P.M (Palm mute the open notes)

Then play the intro one more time exactly as above.

And then verse again.

After that’s all done the Chorus comes:

e|-------------------------------------------------------------------------|
B|-------------------------------------------------------------------------|
G|---9-9-9-9-------------------------------------------------9-------------|
D|---9-9-9-9-11-/-9-9-9-9-11-11-9-9-7-7-9-9------------------9-------------|
A|---7-7-7-7-11-/-9-9-9-9-11-11-9-9-7-7-9-9—--x2-And-end-on--7-------------|
E|------------9-/-7-7-7-7--9--9-7-7-5-5-7-7--------------------------------|

Play the Verse,

Then the Chorus again

Bridge or whatever you want to call it:
First part:
e|-------------------------------------------------------------|
B|-------------------------------------------------------------|
G|-----9-9--11-11--13-13----------------7--6-----------------|
D|-----9-9--11-11--13-13---x3-And-then--9--8--11--9----------|
A|-----7-7---9--9---9--9----------------9--8--11--9----------|
E|-----------------------------------------------9--7----------|




Second part: Third part(outro):
e|-------------------------------------------------------------------------|
B|-------------------------------------------------------------------------|
G|---9-9-x-9-9-x------------------------------------9-9-9-9----------------|
D|---9-9-x-9-9-x—--A-lot-of-times,-and-then-play:---9-9-9-9----------------|
A|---7-7-x-7-7-x------------------------------------7-7-7-7----------------|
E|-------------------------------------------------------------------------|

2.guitar over the bridge(or outro):

e|-----------------------------|
B|-----------------------------|
G|------9--11--9------9—-11--9-|
D|---9-------------9-----------|
A|-----------------------------|
E|-----------------------------|

And end on:

e|-----------|
B|-----------|
G|----9------|
D|----9------|
A|----7------|
E|-----------|

Enjoy, this is a really powerful and fun song to play!