Autopilot Off — Nothing Frequency

На этой странице Вы можете ознакомиться с 3 версиями подбора аккордов для гитары к песне "Nothing Frequency" группы (исполнителя) "Autopilot Off".

Autopilot Off - Nothing Frequency
Album: Autopilot Off EP
Tuning: E A D G
Tabbed By: Dean K. (projectwyze13@hotmail.com)

Intro/Chorus
G-----------------------------
D-0-0-0-----------------------
A--------0-0------------------
E--------------3-3-7-7-5-5----
Verse
G --------------------------------------------------------
D 0-0-0-0-0-0-0-0-0-0-0-0-------------------------5-5-3-3-
A ------------------------0-0-0-0-0-0-0-0-0-0-0-0---------
E --------------------------------------------------------

Bridge
G------------------------------
D------------------------------
A------------------------------
E 3-3-3-3-3-3-3-3-3-3-3-3------

Break
G--------------------------------------------------
D 00000000-----------------------------------------
A ----------00000000-------------------------------
E----------------------------3333333377773333------

Riff
G---------------------------------------------------
D---------------------------------------------------
A---------------------------------------------------
E -7-7-7-7-7-7-7-7-5-5-5-5-5-5-5-5-3-3-3-3-3-3-3-3--
ORDER
Intro x2
Verse x3
Bridge x1
Verse x1
Bridge x1
Chorus x2
Verse x3
Bridge x1
Verse x1
Bridge x1
Chorus x2
Riff x1
Break x2
Chorus x 4
Autopilot Off - Nothing Frequency
Album: Autopilot Off EP
Tuning: E A D G B E
Tabbed By: Dean K. (projectwyze13@hotmail.com)

Intro/Chorus
E-------------------------------------------------------------
B-------------------------------------------------------------
G---77---77777777---99---77777777---99---1111---999---77777777
D---77---77777777---99---77777777---99---1111---999---77777777
A---55---55555555---77---55555555---77---9--9---999---55555555
E-------------------------------------------------------------

Verse
E-----------------------------------------------
B-----------------------------------------------
G---77---77---77---1212121212121212-------------
D---77---77---77---1212121212121212-------------
A---55---55---55---1010101010101010-------------
E-----------------------------------------------

Bridge
E---------------------------------------------------
B---------------------------------------------------
G---77---xxxx---77---xxxx---77---xxxxxxxx-----------
D---77---xxxx---77---xxxx---77---xxxxxxxx-----------
A---55---xxxx---55---xxxx---55---xxxxxxxx-----------
E---------------------------------------------------

Outro
E--------------------------------
B--------------------------------
G---777---77---77----------------
D---777---77---77----------------
A---555---55---55----------------
E--------------------------------
guitar 1 (rhythm)

------------------------------------
------------------------------------
------------------------------------
-7--77------------------------------
-5--55---77--55--99-77--------------
---------55--33--77-55--------------

guitar 2 (lead)

---------------------------------------------------
---------------------------------------------------
-77777777/9/77777777/9/7777777/9/11-11--9-9--9/11-7
-xxxxxxxx/x/xxxxxxxx/x/xxxxxxx/x/-x-xx--x-x--x-xx-x
-55555555/7/55555555/7/5555555/7/-9--9--7-7--7--9-5
---------------------------------------------------

http://www.daysgoneby2002.com