Autopilot Off — Passtime

yeah just the intro im sure you can figure out the chords on your own


E--------------------------------------------------
B--------------------------------------------------
G--------------------------------------------------
D-9-9-9-9-8-9--------------8-8-8-8-9-8-------------
A-7-7-7--------7-7-7-9-8-9-6-6-6-------------------
E--------------9-9-9-------------------------------


E--------------------------------------------------
B--------------------------------------------------
G--------------------------------------------------
D-11-11-11-11-9-11---------------------------------
A-9--9--9------------------------------------------
E--------------------------------------------------

yeah thats about it