Avantasia — Anywhere

На этой странице Вы можете ознакомиться с 2 версиями подбора аккордов для гитары к песне "Anywhere" группы (исполнителя) "Avantasia".

#----------------------------------PLEASE NOTE---------------------------------#
#This file is the author's own work and represents their interpretation of the #
#song. You may only use this file for private study, scholarship, or research. #
#------------------------------------------------------------------------------#


Song: Anywhere
Group: Avantasia
Album: The Metal Opera Part.2
Day Tabbed: 1/Oct/03
Transcribed By: Marco Nassenstein
E-mail: tabs[at]anudu.com


please note:
This song - of course - begs for a piano. So it will not sound perfectly well
when played with an (acoustic) guitar. But anyway, it's a great song and even
a bad performance can't ruin it! So have fun.



Intro:

H D#m E
H D#m E


H E
I remember it was long ago

H E D#
But when I think of her I feel it grow

C#m F#
Something begs me to come home again

C#m E F#
Something I can hardly stand


E F# H
But I'm to defy,

E F# G#m F#
I have to ignore her cry, oh

E F# H
I don't know what to do

C#m F#
I'm missing you so bad


G#m E H F#
Waiting for tomorrow, for a little ray of light

G#m E F# H F#
Waiting for tomorrow just to see your smile again

G#m E H F#
Take away my sorrow from a blistered heart of mine

G#m F# E
Where are you now; if you are there; anywhere


Please forgive me for how I decide
But before I can come with rapid strides
Don't expect you'll have to understand
Jakob needs my helping hand

First I have to go
One out of two ways which both are
Wrong and I'm to go


e|-----------|-------------|------------|
B|-10-9-7----|-7-----------|------------|
G|--------9--|----9--7-6---|-8-6--------|
D|---7-7-7-7-|--7--7--7--7-|-----9-7-6--|
A|-----------|-------------|--9-9-9-9---|
E|-----------|-------------|-------------
So afraid, so ashamed So deranged - but I know...


e|---------------------------------------------------------7-|
B|-----------------------------4---4--5-4-5--7-5-7--9-7-9----|
G|--------3---3--4-3-4--6-4-6----6---------------------------|
D|-6-4-6----6------------------------------------------------|
A|-----------------------------------------------------------|
E|-----------------------------------------------------------|


Waiting for tomorrow, for a little ray of light
Waiting for tomorrow just to see your smile again
Take away my sorrow from a blistered heart of mine
Where are you now if you are there anywhere


Solo 2nd Guitar:
C# A E H

C# A H E H

C# A H G#

C# H A A F#


Solo Lead Guitar:

e|---9---9-11-12---12-11-9-------------|
B|-9-----------------------12---9------|
G|--------------------------------9-11-|
D|-------------------------------------|
A|-------------------------------------|
E|-------------------------------------|


e|---9---9-11-12---12-11-9-------16----------14-------14-|
B|-9-----------------------12-------17----17----16-------|
G|-------------------------------------16----------16----|
D|-------------------------------------------------------|
A|-------------------------------------------------------|
E|-------------------------------------------------------|


e|-16--16-17-19-19-17-16-17-16-14---14-16-17-17-16-14--12-|
B|--------------------------------------------------------|
G|--------------------------------------------------------|
D|--------------------------------------------------------|
A|--------------------------------------------------------|
E|--------------------------------------------------------|


e|-12-11-11-12-11------------------17~---14--16-|
B|----------------12-14~--------14--------------|
G|----------------------------------------------|
D|----------------------------------------------|
A|----------------------------------------------|
E|----------------------------------------------|
e|------------9-10--10-9-7-------------|
B|-7-9/12--12--------------10----------|
G|----------------------------11-7-9---|
D|-------------------------------------|
A|-------------------------------------|
E|-------------------------------------|


e|------------9-10--10-9-7-----14--------12-------|
B|-7-9/12--12--------------10----15--15----14--14-|
G|---------------------------------14--------14---|
D|------------------------------------------------|
A|------------------------------------------------|
E|------------------------------------------------|


e|-14--14-15-17-17-15-14-12--12-14-15-15-14-12-----------------|
B|---------------------------------------------15--16-15-16-15-|
G|-------------------------------------------------------------|
D|-------------------------------------------------------------|
A|-------------------------------------------------------------|
E|-------------------------------------------------------------|


e|-------------------------------------------------------------|
B|----------16-------------------------------------------------|
G|-15-17-17-----18---------------------------------------------|
D|-------------------------------------------------------------|
A|-------------------------------------------------------------|
E|-------------------------------------------------------------|

Hope u enjoy playin' it
for mistakes please mail to:-rhapsody-@tiscali.it