Avenged Sevenfold — I Wont See You Tonight Part 2

На этой странице Вы можете ознакомиться с 2 версиями подбора аккордов для гитары к песне "I Wont See You Tonight Part 2" группы (исполнителя) "Avenged Sevenfold".

Song: I Won't See You Tonight Part 2
Artist: Avenged Sevenfold
Album: Waking the Fallen
Tabbed by: Christian / silent_warrior_@hotmail.com

PM - Palm mute
/ - Slide up
- Slide down
^ - Bend
~ - Vibrato

Tuning: D A D G B E


Intro/Verse
|---------------------|
|---------------------|
|---------------------|
|---------------------|
|-00000---00000-00000-|
|-00000---00000-00000-|
PM----- ----- -----


|-----------------------|-----------------------|
|-----------------------|-----------------------|
|-----------------------|-----------------------|
|-----------------------|-----------------------|
|-1--1-1/8-7--0--0-/3-5-|-1--1-1/8-7--0--0-/4-6-|
|-1--1-1/8-7--0--0-/3-5-|-1--1-1/8-7--0--0-/3-5-|


|--------------------------|-----------------------------------|
|-------15----------15-15--|----------15-----------------15-15-|
|-------14----------14-14--|----------14-----------------14-14-|
|--------------------------|-----------------------------------|
|-0-0-0-----0-0-0-0--------|-00-0-000-----0000-0-000-0-0-------|
|-0-0-0-----0-0-0-0--------|-00-0-000-----0000-0-000-0-0-------|
PM- - - - - - - -- - --- ---- - --- - -


|---------------------|---------------|
|---------------------|---------------|
|---------------------|---------------|
|---------------------|---------------|
|---------------------|---------------|
|-5/12-11-10-9-7-5----|-5/12-11-10-5^-|


Fill
|--------|
|--------|
|--------|
|--------|
|-0-0-/6-|
|-0-0-/6-|


Chorus
|------------------------------------------|--------------|
|------------------------------------------|--------------|
|------------------------------------------|--------------|
|--------8-7---------7-6-------6-5-----5-4-|--------------|
|-0-0---10-9-0-0-0---9-8-0-0---8-7-0-0-7-6-|-0-0-1/5---6-|
|-0-0-0------0-0-0-0-----0-0-0-----0-0-----|-0-0-1/5---6-|
PM- - - - - - - - -


Verse
|-----------------------------------------------------------|
|-----------------------------------------------------------|
|-----------------------------------------------------------|
|------7-7--7777-8---------------------7-7--7777-8----------|
|-0000-5-5--5555-6--5-5/6--62/3--0000-5-5--5555-6--2-3-5-6-|
|-0000--------------5-5/6--62/3--0000--------------2-3-5-6-|
PM---- ---- ---- ----


Cool riff
|---------------------------------|
|---------------------------------|
|---------------------------------|
|---------------------------------|
|-0-12-11-0-10-9-8-7-0-7-6-0-5----|
|-0-12-11-0-10-9-8-7-0-7-6-0-5-3~-|


|----------------------|
|----------------------|
|----------------------|
|----------------------|
|-00-00--00--0-0-00000-|
|-00-00--00--0-0-00000-|
PM-- -- -- - - -----


Solo part (this is the rhythm; not sure about this part)
|--------------------------------------------|
|--------------------------------------------|
|--------------------------------------------|
|--------------------------------------------|
|-0--000-------000-----0-0-00-0-00-2-00-3-00-|
|-0--000-7~-6~-000-5~--0-0-00-0-00-2-00-3-00-|
--- --- - - -- -- -- --

|-------------------------------------------------------------|
|-------------------------------------------------------------|
|-------------------------3-3-3-3-3-3-------------------------|
|-------------------------3-3-3-3-3-3-------------------------|
|-5-5-5-5-5-5-1-1-1-1-1-1-1-1-1-1-1-1-3-3-3-3-3-3-4-4-4-4-4-4-|
|-5-5-5-5-5-5-1-1-1-1-1-1-------------3-3-3-3-3-3-4-4-4-4-4-4-|
originally tabbed by: Arch666Enemy

e|---------------------------------------------------------------------------|
B|-------------------------------------------------------------------------18|
G|-17p14----------------------17----------20~----17p14----------14-----------|
D|----------------------17h19-------18h19--------------17p15h17----18h19h20--|
A|-------18p15----18h19--------19h20-----------------------------------------|
E|-------------19------------------------------------------------------------|

e|------------17----17b~-----------------------------------------------------|
B|---------------16-------16----------15h16p15-------------------------------|
G|-1714-16h20----------------15p14h15----------15-------15p14----------------|
D|------------------------------------------------16h19-------16-15h16h19----|
A|---------------------------------------------------------------------------|
E|---------------------------------------------------------------------------|

e|----------------------------------16h15-20-19p18p16------------------------|
B|------------------------18b-17h18------------------------------------------|
G|-17p14-------16p11---------------------------------17p16p14--------17h8h19h|
D|-------18p15------15h16------------------------------------15h17h18--------|
A|---------------------------------------------------------------------------|
E|---------------------------------------------------------------------------|

e|---------------------------------------------------------------------------|
B|---------------------------------------------------------------------------|
G|-20-19----------15h17hp15--------------------------------------------------|
D|-------15h17h20----------15h17--------15h17h19-19-15h17h19--------20----15-|
A|------------------------------17h19h20--------------------17h19h20---16----|
E|---------------------------------------------------------------------------|

e|---------------------------------------------------------------------------|
B|---------------------------------------17p14-------------------------------|
G|----------------------------------15h18---------------17h18----------------|
D|-15p13p12-14-13-14p13p12-13p12p11------------19h20h22-------20p18p17-------|
A|---------------------------------------------------------------------20p17-|
E|---------------------------------------------------------------------------|

e|-------------17--------------------------------17h20-21-17h23b23-17h23b23--|
B|----------18----14/-16h17--------------------------------------------------|
G|------/18-----------------20p19p18p17p16----17-----------------------------|
D|-1818------------------------------------19--------------------------------|
A|---------------------------------------------------------------------------|
E|---------------------------------------------------------------------------|

e|-20h22h23-17h23-32p22p17-23p22p17-23-19-17p12-----23p22p20--18h19--18h19p18|
B|---------------------------------------------17----------------------------|
G|------------------------------------------------20--------20-----20--------|
D|---------------------------------------------------------------------------|
A|---------------------------------------------------------------------------|
E|---------------------------------------------------------------------------|

e|--------------------------------------------------------I-------------------|
B|------------------------------16------------------------I----16b(18)r-------|
G|-19--------20----18p17--18p15----------------I give up--I-------------------|
D|---19h21h22---19------17---------15h16h18p15------------I-------------------|
A|--------------------------------------------------------I-------------------|
E|--------------------------------------------------------I-------------------|