Avenged Sevenfold — Second Heartbeat

На этой странице Вы можете ознакомиться с 5 версиями подбора аккордов для гитары к песне "Second Heartbeat" группы (исполнителя) "Avenged Sevenfold".

Avenged Sevenfold - Second Heartbeat
Submitted By: fruit bowl
EMail: FxLxAxW@hotmail.com


Intro
. . . . . . . . . . . . . do this a bunch of times
e:------------------------------------------------------|
B:------------------------------------------------------|
G:--5-5-5-5-5-5-5-5-5-5-5-5-5---------------------------|
D:--5-5-5-5-5-5-5-5-5-5-5-5-5---------------------------|
A:--3-3-3-3-3-3-3-3-3-3-3-3-3---------------------------|
D:------------------------------------------------------|




0:07 Riff A x4 (last time)
e:---------------------------------------------------------|-------------|
B:-----------------------------------------------6/8-6-----|-------------|
G:--3/5-0-5-7-0-7-8-0-8-7-5-3---5-5/8-7-5-3---5--------8-7-|-7/8~--85---|
D:----------------------------6-------------6--------------|-------------|
A:---------------------------------------------------------|-------------|
D:---------------------------------------------------------|-------------|




0:35 Riff B x2 . . . .
e:--------------------------------------------------|--------------|
B:--------------------------------------------------|--------------|
G:--12--7-8--3-5-4----5-7-8-7--5-4--12--7-8--3-5-4--|---12---------|
D:---x--x-x--x-x-x----5-7-8-7--x-x--x---x-x--x-x-x--|----x----*----|
A:--10--5-6--1-3-2----3-5-6-5--3-2--10--5-6--1-3-2--|---10----17~--|
D:--------------------------------------------------|--------------|




0:58 Riff C x2
e:------------------------------|
B:------------------------------|
G:---5-7-8-8/13--8-10-12-12/15--|
D:---x-x-x-x--x--x-x---x--x--x--|
A:---3-5-6-6/11--6-8--10-10/13--|
D:------------------------------|




1:08 Riff D
e:----------------------------------------------------|
B:----------------------------------------------------|
G:--20-19-15-17-15-12-10-12-10-8---8-10-7-3-5~--/12~--|
D:---x--x--x--x--x--x-x---x-x--x---x-x--x-x-x-----x---|
A:--18-17-13-15-13-10-8--10-8--6---6-8--5-1-3~--/10~--|
D:----------------------------------------------------|



Riff E
1:22 . ........ ........ . ........ . . x2
e:-----------------------------------------------------------------|
B:-----------------------------------------------------------------|
G:---5-5-55555555-5--55555555-5-5--5-5-55555555-5-5----------------|
D:---5-5-55555555-5--55555555-5-5--5-5-55555555-5-5--6-6--3-3------|
A:---3-3-33333333-3--33333333-3-3--3-3-33333333-3-3--6-6--3-3------|
D:---------------------------------------------------6-6--3-3------|


.............................................. . .
e:----------------------------------------------------------------|
B:----------------------------------------------------------------|
G:---5555555555555555555555555555555555555555555555---------------|
D:---5555555555555555555555555555555555555555555555--6-6--3-3-----|
A:---3333333333333333333333333333333333333333333333--6-6--3-3-----|
D:---------------------------------------------------6-6--3-3-----|




. ........ ........ . ........ . .
e:-----------------------------------------------------------------|
B:-----------------------------------------------------------------|
G:---5-5-55555555-5--55555555-5-5--5-5-55555555-5-5----------------|
D:---5-5-55555555-5--55555555-5-5--5-5-55555555-5-5--6-6--3-3------|
A:---3-3-33333333-3--33333333-3-3--3-3-33333333-3-3--6-6--3-3------|
D:---------------------------------------------------6-6--3-3------|




1:40 Riff F
e:--------------------------------------|
B:--------------------------------------|
G:----0--------0--------1--------4/7~---|
D:------3--1-----3--1p0---3--1p0--------|
A:-----------3--------------------------|
E:--------------------------------------|




1:43 Riff G x2
e:------------------------------------------------------|
B:------------------------------------------------------|
G:------------------------------------------------------|
D:---10-10-10-10-10--8-8-8-8-8--6-6-6-6-6--8-8-8-8-8----|
A:---10-10-10-10-10--8-8-8-8-8--6-6-6-6-6--8-8-8-8-8----|
D:---10-10-10-10-10--8-8-8-8-8--6-6-6-6-6--8-8-8-8-8----|



1:51 Riff H
e:--------------------------------------------|
B:-----------------------------6/8-6----------|
G:--5-7--7/8-5-7/8-7---7-7/8-5-------8-7------|
D:-------------------8-------------------8----|
A:--------------------------------------------|
D:--------------------------------------------|





e:------------------------------------------|
B:----------------------------------9/11----|
G:---7/8-5-7/8-7---7----5--7/8-7-8----------|
D:---------------8----6---------------------|
A:------------------------------------------|
D:------------------------------------------|





e:-----------------------------------------|
B:--------------------------6/8-6----------|
G:----7/8-5-7/8-7---7-7/8-5-------8-7------|
D:----------------8-------------------8----|
A:-----------------------------------------|
D:-----------------------------------------|





e:----------------------------------------|
B:----------------------------------------|
G:----7/8-5-7/8-7---7----5--7/8-7-8-7-5~--|
D:----------------8----6------------------|
A:----------------------------------------|
D:----------------------------------------|




2:10 Riff I (strumming not exact) x4
e:--------------------------------------------------------------------|
B:--------------------------------------------------------------------|
G:--------------------------------------------------------------------|
D:---10-10-10-10-10--8-8-8-8-8--6-6-6-6-6--8-8-8-8-8--10-10-10-10-10--|
A:---10-10-10-10-10--8-8-8-8-8--6-6-6-6-6--8-8-8-8-8--10-10-10-10-10--|
D:---10-10-10-10-10--8-8-8-8-8--6-6-6-6-6--8-8-8-8-8--10-10-10-10-10--|


2:47 Riff J
e:---------------------------------------|
B:---------------------------------------|
G:---5--5/8-7---5--7-8-8/12-10-15-17-----|
D:---x--x-x-x---x--x-x-x--x-x---x--x-----|
A:---3--3/6-5---3--5-6-6/10-8--13-15-----|
D:---------------------------------------|




2:57 Riff K x4
e:-------------------------------|
B:-------------------------------|
G:--5-----------------3-3--4-4---|
D:--5--0-1-0-1-3-5-5--3-3--4-4---|
A:--3--0-1-0-1-3-5-5--1-1--2-2---|
D:-----0-1-0-1-3-5-5-------------|




3:15 Riff L ............ ............ x2
e:-----------------------------------------------------------------|
B:-----------------------------------------------------------------|
G:-----------------------------------------------------------------|
D:--0---0-1-0-1-0-0-----------------0---0-1-0-1-0-0-000033332222---|
A:--0---0-1-0-1-0-0-----------------0---0-1-0-1-0-0-000033332222---|
D:--0---0-1-0-1-0-0-000000000000----0---0-1-0-1-0-0-000033332222---|



3:34 Riff M
e:------------------------|
B:------------------------|
G:--7--75-53-3-3/4------|
D:--x--x-x-x-x-x-x-x------|
A:--5--53-31-1-1/2------|
D:------------------------|


3:38 (repeat Riff A) x4

4:18 (repeat Riff I) x2

4:36 (repeat Riff H) x2

4:52 (alternate ending for Riff H)
e:-------------------------------------------------------|
B:-------------------------------------------------------|
G:-------------------------------------------15-17-17~---|
D:--6-5-6-8-10-8-10-12-13-12-13-15-17-15-17--------------|
A:-------------------------------------------------------|
D:-------------------------------------------------------|


4:55 (repeat Riff I) x4

5:31 SOLO! (i only figured out part of it... sorry)

e:----------------------------------------------11--13-13/15-13----|
B:---/13-------------11--13/15-11------------11--------------------|
G:------12~-----------------------10~-----10-----------------------|
D:----------13-12-13-----------------------------------------------|
A:-----------------------------------------------------------------|
D:-----------------------------------------------------------------|




e:---------------------------|----------------------------------------|
B:-16--13-13h15-13-11/13-----|--/13-----------------11--13/15-11------|
G:-----------------------12~-|-----12----------------------------10~--|
D:---------------------------|-------13-12-13-12-13-------------------|
A:---------------------------|----------------------------------------|
D:---------------------------|----------------------------------------|



e:------------------15-13-------15/18--15-13--------|-then---------20~--|
B:------------------------16-13--------------16-13~-|--they-------------|
G:--------------------------------------------------|---go--------------|
D:-15...fast stuff...-------------------------------|--frickin'---------|
A:--------------------------------------------------|--crazy and end on-|
D:--------------------------------------------------|-------------------|
^ = Play Note Repeatedly as Needed 

(1X)
G|--5-----------------------------------------------|
D|--------------------------------------------------|
A|------3---3-1-------------3--3-5-6-5-3------------|
E|--------------4---1---3----------------4---1---3--|
^
(2X)
G|--------------------------------------------------|
D|--------------------------------------------------|
A|--3-55-66-55-33---------3-55-66-55-33----------3--|
E|----------------4--1-3-----------------4--1-3-----|
^ ^ ^ ^ ^ ^ ^ ^
(2X)
G|---------------------------------------|
D|---------------------------------------|
A|--3333-5555-6666-----------------------|
E|-----------------6666--444444--333333--|

(1X)
G|----------------------------|
D|----------------------------|
A|--333--555--666-------------|
E|-----------------666--4--3--|

(1X)
G|-------------------------------------------------|
D|-------------------------------------------------|
A|--3333-5555-6666-----------------------66666666--|
E|-----------------6666--444444--333333------------|

(1X)
G|-----------------3--------------------|
D|--------6----5-6----------6----5-6-3--|
A|--3-5-6----6--------3-5-6----6--------|
E|--------------------------------------|

(2X)
G|-----------------------------------------|---------|
D|-----------------------------------------|----2-5--|
A|--33333333-----------666666666-----------|--3------|
E|-----------4444-444------------6666-666--|---------|

(1X)
G|-----------------------------------------------------------------------|
D|-----------------------------------------------------------------------|
A|--3--3-33-3-33--------3--3-33-3-33--------3--------3--3-33-3-33--------|
E|---------------44-11---------------44-11----44-11---------------44-11--|
^ ^ ^ ^ ^ ^ ^ ^ ^ ^
(6X)
G|------------------------------------------|
D|------------------------------------------|
A|--33333333--11111111------------11111111--|
E|----------------------44444444------------|

(3X)
G|------------------------------------------------------------55-33--------|
D|--------55-33--------------------33-55----------------------------55-33--|
A|--33333-------66-55--------55-66---------------------333333--------------|
E|--------------------666666-------------444444-666666---------------------|

(1X)
G|-------------------------------------------------|
D|--------55-33--------------------33-55-----------|
A|--33333-------66-55--------55-66--------------3--|
E|--------------------666666--------------4--6-----|

(1X)
G|---------------------------3--|
D|---------------------5---3----|
A|--3---6--5---3--5--6----------|
E|------------------------------|

(4X)
G|----------------------33--44--|
D|-------------3-3-55-----------|
A|--33--5-6-56------------------|
E|------------------------------|

(4X)
G|------------------------|--------------3--4--|
D|------------------------|-------2-3-5--------|
A|--5--5-6-5-6-5--5--8-7--|--5--5--------------|
E|------------------------|--------------------|

(1X)
G|---------------------------------------|
D|---------------------------------------|
A|--3------------3--3-5-6-5-3------------|
E|-----4--1--3----------------6-4--1--3--|

(1X)
G|--------------------------------------------------|
D|--------------------------------------------------|
A|--3-55-66-55-33---------3-55-66-55-33----------3--|
E|----------------4--1-3-----------------4--1-3-----|
^ ^ ^ ^ ^ ^ ^ ^
(4X)
G|------------------------------------------|
D|------------------------------------------|
A|--33333333--11111111------------11111111--|
E|----------------------44444444------------|

(4X)
G|------------------------------------------------------------55-33--------|
D|--------55-33--------------------33-55----------------------------55-33--|
A|--33333-------66-55--------55-66---------------------333333--------------|
E|--------------------666666-------------444444-666666---------------------|

(3X)
G|------------------------------------------|
D|------------------------------------------|
A|--33333333--11111111------------11111111--|
E|----------------------44444444------------|

(1X)
G|-----------------------------------|
D|-----------------------------------|
A|--33333333-----------------1----3--|
E|------------11111111--4------------|


================================================================================
e|--------------------------------------------------- 
b|---------------------------------------------------
g|---------------------------------------------------
d|---------------------------------------------------
a|3-3-3-3-3-3-3-3-3-3-3-3-3-3-3-3-3-3-3-3-3-3-3-3-3-3
d|---------------------------------------------------

riff b (x4)
e|--------------------------------------------------|----
b|1---1-3---3-4---4-3-1-------4-3-1--------8-6-4-3--|1~--
g|--0-----0-----0-------3---5-------3---5-----------|--0~
d|------------------------6-----------6-------------|----
a|--------------------------------------------------|----
d|--------------------------------------------------|----

riff c (x2)
e|---------------------------------------------------
b|---------------------------------------------------
g|5555-7777-88888888---------------------------------
d|-------------------6666666655555555----------------
a|3333-5555-66666666-6666666655555555----------------
d|-------------------6666666655555555----------------

riff d
e|---------------------------------------------------
b|---------------------------------------------------
g|5555x-7777x-8888x 8888x----------------------------
d|5555x-7777x-8888x-8888x-6666666655555555-----------
a|3333x-5555x-6666x 6666x-6666666655555555-----------
d|------------------------6666666655555555-----------

riff c (x1)
e|------------------------------------|-----------8^-
b|------------------------------------|--------------
g|5555-7777-88888888------------------|--------------
d|-------------------6666666655555555-|-55555555-----
a|3333-5555-66666666-6666666655555555-|-55555555-----
d|-------------------6666666655555555-|-55555555-----

riff e (x1)
e|---------------------------------------------------
b|---------------------------------------------------
g|5-7-8-13-12-10-12-5-7-8-13-12-10-15----------------
d|---------------------------------------------------
a|3-5-6-11-10-8--10-3-5-6-11-10-8--13----------------
d|---------------------------------------------------

riff f (x1)
e|--------------------------------------------------------------------------
b|13~-13~-11-13-13-13-13-13-13-13-13-11-11-11-11-11-11-11-11-6-6-6-6-6-6-6-6
g|--------------------------------------------------------------------------
d|10~-10~-8--10-10-10-10-10-10-10-10-8--8--8--8--8--8--8--8--3-3-3-3-3-3-3-3
a|--------------------------------------------------------------------------
d|--------------------------------------------------------------------------

riff f continued
e|------------------------------------------------------------------
b|8-8-8-8-8-8-8-8-4-4-4-4-4-4-4-4-6-6-6-6-8-8-8-8-4-4-4-4-6-6-6-6---
g|----------------------------------------------------------------5~
d|5-5-5-5-5-5-5-5-1-1-1-1-1-1-1-1-3-3-3-3-5-5-5-5-3-3-3-3-5-5-5-5---
a|----------------------------------------------------------------3~
d|------------------------------------------------------------------

riff g (x2)
e|---------------------------------------------------
b|---------------------------------------------------
g|---------------------------------------------------
d|5555555-555555-5-5555555-5-6-6-5-5-----------------
a|3333333-333333-3-3333333-3-6-6-5-5-----------------
d|---------------------------6-6-5-5-----------------

riff h (x1)
e|---------------------------------------------------
b|---------------------------------------------------
g|---------------------------------------------------
d|55555555555555555555555555-6-6-5-5-----------------
a|33333333333333333333333333-6-6-5-5-----------------
d|---------------------------6-6-5-5-----------------

riff g (x1)

riff i (x1)
e|---------------------------------------------------
b|---------------------------------------------------
g|0-------1-------3-------4/7------------------------
d|--3-1-0---3-1-0---3-1-0----------------------------
a|---------------------------------------------------
d|---------------------------------------------------

riff j (x2)
e|---------------------------------------------------
b|---------------------------------------------------
g|---------------------------------------------------
d|55555555-33333333-66666666-55555555----------------
a|33333333-11111111-66666666-55555555----------------
d|------------------66666666-55555555----------------

riff k (x4)
e|---------------------------------------------------
b|1---1-3---3-4---4-4-3-1----------------------------
g|--0-----0-----0---------3--------------------------
d|---------------------------------------------------
a|---------------------------------------------------
d|---------------------------------------------------

riff l (x3)
e|--------------------------------------------------------------------
b|--------------------------------------------------------------------
g|--------------------------------------------------------------------
d|5555555555555555-7777777777777777-88888888-77777777-5555555555555555
a|3333333333333333-5555555555555555-66666666-55555555-3333333333333333
d|--------------------------------------------------------------------

riff l #2 (x1)
e|---------------------------------------------------
b|---------------------------------------------------
g|---------------------------------------------------
d|5555555555555555-7777777777777777-8~-7~-5~~--------
a|3333333333333333-5555555555555555-6~-5~-3~~--------
d|---------------------------------------------------

riff m (x1)
e|---------------------------------------------------
b|-------------9---11-13-----------------------------
g|5~-7-3~-5~-8---8-----------------------------------
d|-------------6---8--10-----------------------------
a|3~-5-1~-3~-6---6-----------------------------------
d|---------------------------------------------------

riff n (x4)
e|---------------------------------------------------
b|---------------------------------------------------
g|---------------------------------------------------
d|10~-0-1-0-1-0-33333-5555-8888----------------------
a|10~-0-1-0-1-0-33333-5555-8888----------------------
d|10~-0-1-0-1-0-33333-5555-8888----------------------

riff o (x4)
e|---------------------------------------------------------------
b|---------------------------------------------------------------
g|---------------------------------------------------------------
d|0x-0-1-0-1-00-0000000000000000-0x-0-1-0-1-00-00000000-3333-1111
a|0x-0-1-0-1-00-0000000000000000-0x-0-1-0-1-00-00000000-3333-1111
d|0x-0-1-0-1-00-0000000000000000-0x-0-1-0-1-00-00000000-3333-1111
mmmmmmmmmmmmmmmm mmmmmmmm mmmm mmmm

riff p (x1)
e|---------------------------------------------------
b|---------------------------------------------------
g|7~-7-5-3~-5~---------------------------------------
d|---------------------------------------------------
a|5~-5-3-1~-3~---------------------------------------
d|---------------------------------------------------

riff b (x4)
e|--------------------------------------------------|----
b|1---1-3---3-4---4-3-1-------4-3-1--------8-6-4-3--|----
g|--0-----0-----0-------3---5-------3---5-----------|-5~-
d|------------------------6-----------6-------------|----
a|--------------------------------------------------|-3~-
d|--------------------------------------------------|----

riff l (x2)
e|--------------------------------------------------------------------
b|--------------------------------------------------------------------
g|--------------------------------------------------------------------
d|5555555555555555-7777777777777777-88888888-77777777-5555555555555555
a|3333333333333333-5555555555555555-66666666-55555555-3333333333333333
d|--------------------------------------------------------------------

riff b (x4) (it's played differently in some parts)
e|--------------------------------------------------
b|1---1-3---3-4---4-3-1-------4-3-1--------8-6-4-3--
g|--0-----0-----0-------3---5-------3---5-----------
d|------------------------6-----------6-------------
a|--------------------------------------------------
d|--------------------------------------------------

riff l (x8) (here's where the gnarly solo is)
e|--------------------------------------------------------------------
b|--------------------------------------------------------------------
g|--------------------------------------------------------------------
d|5555555555555555-7777777777777777-88888888-77777777-5555555555555555
a|3333333333333333-5555555555555555-66666666-55555555-3333333333333333
d|--------------------------------------------------------------------
these guys are the best, http://avengedsevenfold.com/ for more band info...

riff a (figure out how many times yourself)
e|---------------------------------------------------
b|---------------------------------------------------
g|---------------------------------------------------
d|---------------------------------------------------
a|3-3-3-3-3-3-3-3-3-3-3-3-3-3-3-3-3-3-3-3-3-3-3-3-3-3
d|---------------------------------------------------

riff b (x4)
e|--------------------------------------------------|----
b|1---1-3---3-4---4-3-1-------4-3-1--------8-6-4-3--|1~--
g|--0-----0-----0-------3---5-------3---5-----------|--0~
d|------------------------6-----------6-------------|----
a|--------------------------------------------------|----
d|--------------------------------------------------|----

riff c (x2)
e|---------------------------------------------------
b|---------------------------------------------------
g|5555-7777-88888888---------------------------------
d|-------------------6666666655555555----------------
a|3333-5555-66666666-6666666655555555----------------
d|-------------------6666666655555555----------------

riff d
e|---------------------------------------------------
b|---------------------------------------------------
g|5555x-7777x-8888x 8888x----------------------------
d|5555x-7777x-8888x-8888x-6666666655555555-----------
a|3333x-5555x-6666x 6666x-6666666655555555-----------
d|------------------------6666666655555555-----------

riff c (x1)
e|------------------------------------|-----------8^-
b|------------------------------------|--------------
g|5555-7777-88888888------------------|--------------
d|-------------------6666666655555555-|-55555555-----
a|3333-5555-66666666-6666666655555555-|-55555555-----
d|-------------------6666666655555555-|-55555555-----

riff e (x1)
e|---------------------------------------------------
b|---------------------------------------------------
g|5-7-8-13-12-10-12-5-7-8-13-12-10-15----------------
d|---------------------------------------------------
a|3-5-6-11-10-8--10-3-5-6-11-10-8--13----------------
d|---------------------------------------------------

riff f (x1)
e|--------------------------------------------------------------------------
b|13~-13~-11-13-13-13-13-13-13-13-13-11-11-11-11-11-11-11-11-6-6-6-6-6-6-6-6
g|--------------------------------------------------------------------------
d|10~-10~-8--10-10-10-10-10-10-10-10-8--8--8--8--8--8--8--8--3-3-3-3-3-3-3-3
a|--------------------------------------------------------------------------
d|--------------------------------------------------------------------------

riff f continued
e|------------------------------------------------------------------
b|8-8-8-8-8-8-8-8-4-4-4-4-4-4-4-4-6-6-6-6-8-8-8-8-4-4-4-4-6-6-6-6---
g|----------------------------------------------------------------5~
d|5-5-5-5-5-5-5-5-1-1-1-1-1-1-1-1-3-3-3-3-5-5-5-5-3-3-3-3-5-5-5-5---
a|----------------------------------------------------------------3~
d|------------------------------------------------------------------

riff g (x2)
e|---------------------------------------------------
b|---------------------------------------------------
g|---------------------------------------------------
d|5555555-555555-5-5555555-5-6-6-5-5-----------------
a|3333333-333333-3-3333333-3-6-6-5-5-----------------
d|---------------------------6-6-5-5-----------------

riff h (x1)
e|---------------------------------------------------
b|---------------------------------------------------
g|---------------------------------------------------
d|55555555555555555555555555-6-6-5-5-----------------
a|33333333333333333333333333-6-6-5-5-----------------
d|---------------------------6-6-5-5-----------------

riff g (x1)

riff i (x1)
e|---------------------------------------------------
b|---------------------------------------------------
g|0-------1-------3-------4/7------------------------
d|--3-1-0---3-1-0---3-1-0----------------------------
a|---------------------------------------------------
d|---------------------------------------------------

riff j (x2)
e|---------------------------------------------------
b|---------------------------------------------------
g|---------------------------------------------------
d|55555555-33333333-66666666-55555555----------------
a|33333333-11111111-66666666-55555555----------------
d|------------------66666666-55555555----------------

riff k (x4)
e|---------------------------------------------------
b|1---1-3---3-4---4-4-3-1----------------------------
g|--0-----0-----0---------3--------------------------
d|---------------------------------------------------
a|---------------------------------------------------
d|---------------------------------------------------

riff l (x3)
e|--------------------------------------------------------------------
b|--------------------------------------------------------------------
g|--------------------------------------------------------------------
d|5555555555555555-7777777777777777-88888888-77777777-5555555555555555
a|3333333333333333-5555555555555555-66666666-55555555-3333333333333333
d|--------------------------------------------------------------------

riff l #2 (x1)
e|---------------------------------------------------
b|---------------------------------------------------
g|---------------------------------------------------
d|5555555555555555-7777777777777777-8~-7~-5~~--------
a|3333333333333333-5555555555555555-6~-5~-3~~--------
d|---------------------------------------------------

riff m (x1)
e|---------------------------------------------------
b|-------------9---11-13-----------------------------
g|5~-7-3~-5~-8---8-----------------------------------
d|-------------6---8--10-----------------------------
a|3~-5-1~-3~-6---6-----------------------------------
d|---------------------------------------------------

riff n (x4)
e|---------------------------------------------------
b|---------------------------------------------------
g|---------------------------------------------------
d|10~-0-1-0-1-0-33333-5555-8888----------------------
a|10~-0-1-0-1-0-33333-5555-8888----------------------
d|10~-0-1-0-1-0-33333-5555-8888----------------------

riff o (x4)
e|---------------------------------------------------------------
b|---------------------------------------------------------------
g|---------------------------------------------------------------
d|0x-0-1-0-1-00-0000000000000000-0x-0-1-0-1-00-00000000-3333-1111
a|0x-0-1-0-1-00-0000000000000000-0x-0-1-0-1-00-00000000-3333-1111
d|0x-0-1-0-1-00-0000000000000000-0x-0-1-0-1-00-00000000-3333-1111
mmmmmmmmmmmmmmmm mmmmmmmm mmmm mmmm

riff p (x1)
e|---------------------------------------------------
b|---------------------------------------------------
g|7~-7-5-3~-5~---------------------------------------
d|---------------------------------------------------
a|5~-5-3-1~-3~---------------------------------------
d|---------------------------------------------------

riff b (x4)
e|--------------------------------------------------|----
b|1---1-3---3-4---4-3-1-------4-3-1--------8-6-4-3--|----
g|--0-----0-----0-------3---5-------3---5-----------|-5~-
d|------------------------6-----------6-------------|----
a|--------------------------------------------------|-3~-
d|--------------------------------------------------|----

riff l (x2)
e|--------------------------------------------------------------------
b|--------------------------------------------------------------------
g|--------------------------------------------------------------------
d|5555555555555555-7777777777777777-88888888-77777777-5555555555555555
a|3333333333333333-5555555555555555-66666666-55555555-3333333333333333
d|--------------------------------------------------------------------

riff b (x4) (it's played differently in some parts)
e|--------------------------------------------------
b|1---1-3---3-4---4-3-1-------4-3-1--------8-6-4-3--
g|--0-----0-----0-------3---5-------3---5-----------
d|------------------------6-----------6-------------
a|--------------------------------------------------
d|--------------------------------------------------

riff l (x8) (here's where the gnarly solo is)
e|--------------------------------------------------------------------
b|--------------------------------------------------------------------
g|--------------------------------------------------------------------
d|5555555555555555-7777777777777777-88888888-77777777-5555555555555555
a|3333333333333333-5555555555555555-66666666-55555555-3333333333333333
d|--------------------------------------------------------------------


SOLO! (i only figured out part of it... sorry)

e:----------------------------------------------11--13-13/15-13----|
B:---/13-------------11--13/15-11------------11--------------------|
G:------12~--------------------------------------------------------|
D:----------13-12-13---------------15~----15-----------------------|
A:-----------------------------------------------------------------|
D:-----------------------------------------------------------------|




e:---------------------------|----------------------------------------|
B:-16--13-13h15-13-11h13-----|--/13-----------------11--13/15-11------|
G:-----------------------12--|-----12---------------------------------|
D:---------------------------|-------13-12-13-12-13---------------15~-|
A:---------------------------|----------------------------------------|
D:---------------------------|----------------------------------------|



e:------------------15-13-------15/18--15-13--------|-then---------20~--|
B:------------------------16-13--------------16-13~-|--they-------------|
G:--------------------------------------------------|---go--------------|
D:-15...fast stuff...-------------------------------|--frickin'---------|
A:--------------------------------------------------|--crazy and end on-|
D:--------------------------------------------------|-------------------|


whew... that's the best song ever, sorry i couldn't get it perfect.
AVENGED SEVENFOLD-SECOND HEARTBEAT (SOLO)
Tabbed by Ben H (PunkAsPhuck)

|--------------------10-----------------13-1315-13--------|
|13--------------------11--------13-16---------------------|
|----12-----------13------10--15----------------------------|
|-------13-12-13--------------------------------------------|
|-----------------------------------------------------------|
|-----------------------------------------------------------|

|----------h------------h-----------------------------------|
|-16-13-13-15-13-11-11-13-----------------------------------|
|------------------------------ 12------h--p----------------|
|----------------------------- 12-13-12----h--p-------------|
|--------------------------------------- 13-15-13-----------|
|-----------------------------------------------------------|

|----------------------- 10-----------------h--h-----|
|13----------------------- 11------h--h--13-15-16----|
|---12--------------- 12-----10-12-13-15--------------|
|-----13-12-13-12-13----------------------------------|
|-----------------------------------------------------|
|-----------------------------------------------------|
h b 1/2
|-13-15-13-------1518-16-15----------p---------------|
|-----------16-13-------------16-13-15-13-15----------|
|-----------------------------------------------------|
|-----------------------------------------------------|
|-----------------------------------------------------|
|-----------------------------------------------------|
b T
|------h--p--h--p----------p-p---------------------|
|----13-15-16-15-13-20-16-15-13--------------------|
|-15-----------------------------------------------|
|--------------------------------------------------|
|--------------------------------------------------|
|--------------------------------------------------|
p arpeggio thing B
|-15-11----------------------------h---h--p--p------------|
|-------13---------------h---p---13-15-16-15-13--16-------|
|----------12----------12-15-13---------------------------|
|-------------13----13------------------------------------|
|----------------15---------------------------------------|
|---------------------------------------------------------|

|-----------------------------------------------------------|
|-------------------------------h--h---------------h--h-----|
|-------------h--h-----h--h---8-10-12---h--h---10-12-13-----|
|---h---h--10-12-13--8-10-12---------10-12-13---------------|
|-10-11-13--------------------------------------------------|
|-----------------------------------------------------------|

|---------------------------------------------------------|
|--------------h--h--p--p----------h-h---p--p-------------|
|---h--h----12-13-15-13-12-----10-12-13-12-10-------------|
|-12-13-15------------------13----------------------------|
|---------------------------------------------------------|
|---------------------------------------------------------|
p p
|-18-16-15---p--p-----p--p-----------------------------------|
|----------18-16-15-16-15-13---p--p-----p--p-----------------|
|-----------------------------17-15-13-15-13-12--------------|
|------------------------------------------------------------|
|------------------------------------------------------------|
|------------------------------------------------------------|

|--------------------------------------------------------|
|--------------------------------------------------------|
|---p---p-----p--p---------------------------------------|
|-17-15-13-15-13-12----p--p------p--p--h---h-------------|
|---------------------17-15-13--15-13-11-13-15-----------|
|--------------------------------------------------------|
b1/2
|-----------------------------------------------------|
|--------------15-------------------------------------|
|-------15-12-----------------------------------------|
|----12-----------------------------------------------|
|-15--------------------------------------------------|
|-----------------------------------------------------|
h p h p
|-------15-20-15-20-15--------------------------| x4
|----16-----------------------------------------|
|-17--------------------------------------------|
|-----------------------------------------------|
|-----------------------------------------------|
|-----------------------------------------------|

|-22-22-22-18--22-22-22-18---------------------|
|----------------------------------------------|
|----------------------------------------------| x8
|----------------------------------------------|
|----------------------------------------------|
|----------------------------------------------|

|-22----------------------------------------------------|
|--------------------------h--h-----h---h-----h--h------|
|-------h---h-----h--h--12-13-15-13-15-17-15-17-19------|
|-----10-12-13-12-13-15---------------------------------|
|-------------------------------------------------------|
|-------------------------------------------------------|

|---h---p--------15-20-15-------------------------------|
|-15-16-15---16----------16---13-15-16-15-16-18---------|
|----------17--------------- 17-------------------------|
|-------------------------------------------------------|
|-------------------------------------------------------|
|-------------------------------------------------------|

|-15-16-1820------------------------------------|
|------------------------------------------------|
|------------------------------------------------|
|------------------------------------------------|
|------------------------------------------------|
|------------------------------------------------|