Avenged Sevenfold — Unholy Confessions

На этой странице Вы можете ознакомиться с 2 версиями подбора аккордов для гитары к песне "Unholy Confessions" группы (исполнителя) "Avenged Sevenfold".

Band : Avenged Sevenfold
Album: Waking The Fallen
Song : Unholy Confessions
Tabbed By Richie Elledge of Poppa Fearsome
Intro
|--------------------------------------------------------------------------|
|--------------------------------------------------------------------------|
|--------------------------------------------------------------------------|
|-0-0----------------------------------------------------------------------|
|-0-0--5---7---8---10---8---7h8p7-----------10-0-8-0-7~-------7-0-8-0------|
|-0-0----0---0---0----0---0-------10~--8-8---------------7-7----------10~--|
PM- - - - - - - - - - -


|-------------------------------------------------|
|-------------------------------------------------|
|-------------------------------------------------|
|-0-0----------------------------------8-8x--7-7x-|
|-0-0--5---7---8---10---8---7h8p7------8-8x--7-7x-|
|-0-0----0---0---0----0---0-------10~--8-8x--7-7x-|
PM- - - - - - -



Harmonized part - Guitar 1
|--------------------------------------------------------------------------|
|--------------------------------------------------------------------------|
|--------------------------------------------------------------------------|
|-0-0----------------------------------------------------------------------|
|-0-0--5---7---8---10---8---7h8p7-----------10-0-8-0-7~-------7-0-8-0------|
|-0-0----0---0---0----0---0-------10~--8-8---------------7-7----------10~--|
PM- - - - - - - - - - -


Harmonized part - Guitar 2
|---------------------------------------------------------------------|
|---------------------------------------------------------------------|
|---------------------------------------------------------------------|
|-0-0--3---5---7---8---7---5h7p5---------8---7---5~-------5---7-------|
|-0-0----------------------------7~--------0---0------------0---0-7~--|
|-0-0----0---0---0---0---0-----------8-8-------------7-7--------------|
PM- - - - - - - - - - -


Fill
|-----------------|
|-8-8-10-10-6-6-4-|
|-7-7--9--9-5-5-3-|
|-----------------|
|-----------------|
|-----------------|


Verse
|------------------------------------------------------------------------|
|-----------------13-1311--1110-10/11------------------8-8-10-10-6-6-4-|
|-7-7-7--7--------12-1210--10-9--9/10------------------7-7--9--9-5-5-3-|
|-7-7-7--7-0--0--------------------------8-8-8--8-8-10-------------------|
|-5-5-5--5-0--0--------------------------8-8-8--8-8-10-------------------|
|----------0--0--------------------------8-8-8--8-8-10-------------------|
PM - - - -


|------------------------------------------------------------------
|------------------------------------------------------------------
|------------------------------------------------------------------
|-12121212-12--1212121212--1212--5-7-8888-8--10101010-10--10-10-10-
|-12121212-12--1212121212--1212--5-7-8888-8--10101010-10--10-10-10-
|-12121212-12--1212121212--1212--5-7-8888-8--10101010-10--10-10-10-
PM-- -- -- -- -- -- -- -- -- -- -- - - - - - - -- -- -- --


Bridge
|-----------------|
|-----------------|
|-----------------|
|-0-0---0-0-0-0-0-|
|-0-0---0-0-0-0-0-|
|-0-0---0-0-0-0-0-|
PM- - - - - - -


Verse
|------------------------------------------------------------|
|------------------------------------------------------------|
|------------------------------------------------------------|
|-0-0------------------------0-0-----------------------------|
|-0-0--7---8---5-7-8--7-5-4~-0-0--7p0-8p0-12p0-13p0-12p0--|
|-0-0----0-------------------0-0-----------------------------|
PM- - - - -


Chorus
|---------------------------------------------------------------------|
|---------------------------------------------------------------------|
|-7-7-7x---------5--5-5-5---------------------------------5-5-5-5-5-5-|
|-7-7-7x-0--2-3--5--5-5-5--2h3--2h3p2------3-3-3X--3--3-3-5-5-5-5-5-5-|
|-5-5-5x-0--2-3--3--3-3-3-------------5-3--3-3-3X--3--3-3-3-3-3-3-3-3-|
|--------0--2-3----------------------------3-3-3X--3--3-3-------------|


|-------------------------------------------------------------|
|-------------------------------------------------------------|
|-7-7-7x---------5-5-5-5-5-5-5-5------------------------------|
|-7-7-7x-0--2-3--5-5-5-5-5-5-5-5--3-3-3x--3--3-3-3--5-5-5x--3-|
|-5-5-5x-0--2-3--3-3-3-3-3-3-3-3--3-3-3x--3--3-3-3--5-5-5x--5-|
|--------0--2-3-------------------3-3-3x--3--3-3-3--5-5-5x--3-|


Solo part (harmonized)
|-------------------------------------------------------------------|
|-------------------------------------------------------------------|
|-------------------------------------------------------------------|
|-------------------------------------------------------------------|
|-10/12-10---8/10-8-10--8/10-12-10--5/7-5-7-5--8--7--5--4---7/8-7-8-|
|-------------------------------------------------------------------|

Verse Riff I

|---------------------|
|---------------------|
|---------------------|
|---------------------|
|-0-0-0-0-0-0-0-0-0-0-|
|-0-0-0-0-0-0-0-0-0-0-|
|-0-0-0-0-0-0-0-0-0-0-|
PM- - - - - - - - - -


|----------------------------|
|----------------------------|
|----------------------------|
|-0-12-11-0-10-9-8-0-7-0-7-6-|
|-0-12-11-0-10-9-8-0-7-0-7-6-|
|-0-12-11-0-10-9-8-0-7-0-7-6-|


|---------------------------------|
|---------------------------------|
|---------------------------------|
|-0-11/12-11-0-9/10-9-8-0-7-0-7-6-|
|-0-11/12-11-0-9/10-9-8-0-7-0-7-6-|
|-0-11/12-11-0-9/10-9-8-0-7-0-7-6-|


|--------------------------------|
|--------------------------------|
|--------------------------------|
|--------------------------------|
|--------------------------------|
|-0-11^--0-10^--0-8^--0-7^--0-5^-|


|------------------------------------|
|------------------------------------|
|------------------------------------|
|--------------------------7-72-2-2-|
|--------------------------9-94-4-4-|
|-0-5^--0-5^--0-5~--0-3-0--7-72-2-2-|

Chorus Riff VI

You can figure out the pattern. Just listen to the song.
Peace out.
song: Unholy Confessions
band: Avenged Sevenfold
tabbed by: gumplunger


this is really just so I can see how its planned out, and edit it in with my own version
I have a feeling the verse & solo is a bit low, but the fill before the verse sounds
alot better than on the already submitted tab on UG (by Thienskater, who is an awesome tabber)


I've edited a couple of wrong bits in it, this is only for Synester Gates,
if you want Zacky Vengence' Part then just leave a comment.


Synester Gates

E||-------------------------------------|----------------------------------|
B||-------------------------------------|----------------------------------|
G||-------------------------------------|----------------------------------|
D||-------------------------------------|----------------------------------|
A||------5---7---8---10---8---7h8h7-----|------10---8---7------7---8-------|
D||--0-0---0---0---0----0---0-------10--|--8-8----8---8----7-7---7---7-10--|



-------------------------------------|----------------------|
-------------------------------------|----------------------|
-------------------------------------|----------------------|
-------------------------------------|----------------------|
------5---7---8---10---8---7h8h7-----|--8-8-----7-7---------|
--0-0---0---0---0----0---0-------10--|--8-8-----7-7---------|



-------------------------------------|----------------------------------|
-------------------------------------|----------------------------------|
-------------------------------------|----------------------------------|
-------------------------------------|----------------------------------|
------5---7---8---10---8---7h8h7-----|------10---8---7------7---8-------|
--0-0---0---0---0----0---0-------10--|--8-8----8---8----7-7---7---7-10--|



-------------------------------------|----------------------------------|
-------------------------------------|----------------------------------|
-------------------------------------|----------------------------------|
-------------------------------------|----------------------------------|
------5---7---8---10---8---7h8h7-----|------10---8---7------7---8-------|
--0-0---0---0---0----0---0-------10--|--8-8----8---8----7-7---7---7-10--|



-------------------------------------|----------------------------------|
-------------------------------------|----------------------------------|
-------------------------------------|----------------------------------|
-------------------------------------|----------------------------------|
------5---7---8---10---8---7h8h7-----|------10---8---7------7---8-------|
--0-0---0---0---0----0---0-------10--|--8-8----8---8----7-7---7---7-10--|



-------------------------------------|-----------------------------|
-------------------------------------|-----------------------------|
-------------------------------------|-----------------------------|
-------------------------------------|---------------5-5/7-7/3-3-2-|
------5---7---8---10---8---7h8h7-----|--8-8-----7-7----------------|
--0-0---0---0---0----0---0-------10--|--8-8-----7-7----------------|



-------------------------------|-------------------------------|
-------------------------------|-------------------------------|
-----------------5-5-3-3-2-2-3-|-------------------------------|
--7--7-7-----------------------|--3--3-3-----5---5-5/7-7/3-3-2-|
--5--5-5-5-5-0-----------------|--1--1-1-1-1-3-----------------|
-------------0-----------------|-------------------------------|



-------------------------------|-------------------------------|
-------------------------------|-------------------------------|
-----------------5-5-3-3-2-2-3-|-------------------------------|
--7--7-7-----------------------|--3--3-3-----5---5-5/7-7/3-3-2-|
--5--5-5-5-5-0-----------------|--1--1-1-1-1-3-----------------|
-------------0-----------------|-------------------------------|



--------------------------------|-------------------------------|
--------------------------------|-------------------------------|
--------------------------------|-------------------------------|
----------7---------------------|----------3----------5------5--|
--5-5-5-5-5-------------------1-|--1-1-1-1-1--3-3-3-3-3--3-3-3--|
-------------0-0-0-0-0--0-3-3---|-------------------------------|



-------------------------------|-------------------------------|
-------------------------------|-------------------------------|
-----------------5-5-3-3-2-2-3-|-------------------------------|
--7--7-7-----------------------|--3--3-3-----5---5-5/7-7/3-3-2-|
--5--5-5-5-5-0-----------------|--1--1-1-1-1-3-----------------|
-------------0-----------------|-------------------------------|



---------------------------|---------------------------|
---------------------------|---------------------------|
---------------------------|---------------------------|
---------------------------|---------------------------|
---------------------------|---------------------------|
--0-0-----0-0-0-0-0--------|--0-0-----0-0-0-0-0--------|



---------------------------|---------------------------|
---------------------------|---------------------------|
---------------------------|---------------------------|
---------------------------|---------------------------|
---------------------------|---------------------------|
--0-0-----0-0-0-0-0--------|--0-0-----0-0-0-0-0--------|



---------------------------|---------------------------|
---------------------------|---------------------------|
---------------------------|---------------------------|
---------------------------|---------------------------|
---------------------------|---------------------------|
--0-0-----0-0-0-0-0--------|--0-0-----0-0-0-0-0--------|



---------------------------|---------------------------|
---------------------------|---------------------------|
---------------------------|---------------------------|
---------------------------|---------------------------|
---------------------------|---------------------------|
--0-0-----0-0-0-0-0--------|--0-0-----0-0-0-0-0--------|



-------------------------|----------------------------|
-------------------------|----------------------------|
-------------------------|----------------------------|
--7---7---------------5--|-------5-----3--2h3h2-0-----|
--5---5-5--0----------3--|----3--3--3--------------3--|
-----------0----2--3-----|----------------------------|



-------------------------|-------------------------|-------------------------|
-------------------------|-------------------------|-------------------------|
-------------------------|-------------------------|-------------------------|
----------------------3--|-------3-----3------3----|--7---7---------------5--|
--3---3----3----3--3--1--|----1--1--1--1--1-1-1----|--5---5-5--0----------3--|
--3---3-3--3----3--3-----|-------------------------|-----------0----2--3-----|



-------------------------|-----------------------|---------------------|
-------------------------|-----------------------|---------------------|
-------------------------|-----------------------|---------------------|
-------5-----5-----5-----|-----------------------|---------------------|
----3--3--3--3--3--3--3--|--3-------3------3--3--|--5-------5----------|
-------------------------|--3----3--3------3--3--|--5----5--0----------|



-------------------------|----------------------------|
-------------------------|----------------------------|
-------------------------|----------------------------|
--7---7---------------5--|-------5-----3--2h3h2-0-----|
--5---5-5--0----------3--|----3--3--3--------------3--|
-----------0----2--3-----|----------------------------|



-------------------------|-------------------------|-------------------------|
-------------------------|-------------------------|-------------------------|
-------------------------|-------------------------|-------------------------|
----------------------3--|-------3-----3-----3-----|--7---7---------------5--|
--3---3----3----3--3--1--|----1--1--1--1--1--1--1--|--5---5-5--0----------3--|
--3---3-3--3----3--3-----|-------------------------|-----------0----2--3-----|



-------------------------|-----------------------|-----------------------|
-------------------------|-----------------------|-----------------------|
-------------------------|-----------------------|-----------------------|
-------5-----5-----5-----|-----------------------|-------------------7-5-|
----3--3--3--3--3--3--3--|--3-------3------3--3--|--5-------5------------|
-------------------------|--3----3--3------3--3--|--5----5--0------------|



------------------------|-----------------------|----------------------|
------------------------|-----------------------|----------------------|
------------------------|-----------------------|----------------------|
--7------3-2-3------5-7-|--5------2-0-2---------|----------------------|
------------------------|------------------4----|--5----8----7----5----|
------------------------|-----------------------|----------------------|



------------------------|------------------------|-----------------------|
------------------------|------------------------|-----------------------|
------------------------|------------------------|-----------------------|
---------3-2-3------7-5-|--7------3-2-3------5-7-|--5------2-0-2---------|
--4---------------------|------------------------|------------------4----|
------------------------|------------------------|-----------------------|



----------------------|----------------------|
----------------------|----------------------|
----------------------|----------------------|
----------------------|---------3-2-3--------|
--5----8----7----5----|--4-------------------|
----------------------|----------------------|



-------------------------------------|----------------------------------|
-------------------------------------|----------------------------------|
-------------------------------------|----------------------------------|
-------------------------------------|----------------------------------|
------5---7---8---10---8---7h8h7-----|------10---8---7------7---8-------|
--0-0---0---0---0----0---0-------10--|--8-8----8---8----7-7---7---7-10--|



-------------------------------------|----------------------|
-------------------------------------|----------------------|
-------------------------------------|----------------------|
-------------------------------------|----------------------|
------5---7---8---10---8---7h8h7-----|--8-8-----7-7---------|
--0-0---0---0---0----0---0-------10--|--8-8-----7-7---------|



-------------------------------------|----------------------------------|
-------------------------------------|----------------------------------|
-------------------------------------|----------------------------------|
-------------------------------------|----------------------------------|
------5---7---8---10---8---7h8h7-----|------10---8---7------7---8-------|
--0-0---0---0---0----0---0-------10--|--8-8----8---8----7-7---7---7-10--|



-------------------------------------|----------------------------------|
-------------------------------------|----------------------------------|
-------------------------------------|----------------------------------|
-------------------------------------|----------------------------------|
------5---7---8---10---8---7h8h7-----|------10---8---7------7---8-------|
--0-0---0---0---0----0---0-------10--|--8-8----8---8----7-7---7---7-10--|



-------------------------------------|----------------------------------|
-------------------------------------|----------------------------------|
-------------------------------------|----------------------------------|
-------------------------------------|----------------------------------|
------5---7---8---10---8---7h8h7-----|------10---8---7------7---8-------|
--0-0---0---0---0----0---0-------10--|--8-8----8---8----7-7---7---7-10--|



-------------------------------------|----------------------------------|
-------------------------------------|----------------------------------|
-------------------------------------|----------------------------------|
-------------------------------------|----------------------------------|
------5---7---8---10---8---7h8h7-----|------10---8---7------7---8-------|
--0-0---0---0---0----0---0-------10--|--8-8----8---8----7-7---7---7-10--|



--------------------------|--------------------------|
--------------------------|--------------------------|
--------------------------|--------------------------|
--------------------------|--------------------------|
--0--0--0--0--0--0--0--0--|--0--0--0--0--0--0--0--0--|
--0--0--0--0--0--0--0--0--|--0--0--0--0--0--0--0--0--|



--------------------------|-----------------------------|
--------------------------|-----------------------------|
--------------------------|-----------------------------|
--------------------------|-----------------------------|
--0--0--0--0--0--0--0--0--|--0--12--11--0--10--9--8--0--|
--0--0--0--0--0--0--0--0--|--0--12--11--0--10--9--8--0--|



----------------------------|---------------------------|
----------------------------|---------------------------|
----------------------------|---------------------------|
----------------------------|---------------------------|
--7--0--6--5--0--12--11--0--|--10--9--8--0--7--0--6--5--|
--7--0--6--5--0--12--11--0--|--10--9--8--0--7--0--6--5--|



---------------------------|---------------------------|
---------------------------|---------------------------|
---------------------------|---------------------------|
---------------------------|---------------------------|
---------------------------|---------------------------|
--0-0-----0-0-0-0-0--------|--0-0-----0-0-0-0-0--------|



---------------------------|---------------------------|
---------------------------|---------------------------|
---------------------------|---------------------------|
---------------------------|---------------------------|
---------------------------|---------------------------|
--0-0-----0-0-0-0-0--------|--0-0-----0-0-0-0-0--------|



---------------------------|---------------------------|
---------------------------|---------------------------|
---------------------------|---------------------------|
---------------------------|---------------------------|
---------------------------|---------------------------|
--0-0-----0-0-0-0-0--------|--0-0-----0-0-0-0-0--------|



---------------------------|---------------------------|
---------------------------|---------------------------|
---------------------------|---------------------------|
---------------------------|---------------------------|
---------------------------|---------------------------|
--0-0-----0-0-0-0-0--------|--0-0-----0-0-0-0-0--------|



---------------------------|---------------------------|
---------------------------|---------------------------|
---------------------------|---------------------------|
---------------------------|---------------------------|
---------------------------|---------------------------|
--0-0-----0-0-0-0-0--------|--0-0-----0-0-0-0-0--------|



---------------------------|---------------------------|
---------------------------|---------------------------|
---------------------------|---------------------------|
---------------------------|---------------------------|
---------------------------|---------------------------|
--0-0-----0-0-0-0-0--------|--0-0-----0-0-0-0-0--------|



------------------------|-----------------------|-------------------------|
------------------------|-----------------------|-------------------------|
------------------------|-----------------------|-------------------------|
------------------------|-----------------------|--7---7---------------5--|
------------------------|-------------7/---4----|--5---5-5--0----------3--|
--0--5b---0--5b---0--4r-|----0--3--0------------|-----------0----2--3-----|



----------------------------|-------------------------|
----------------------------|-------------------------|
----------------------------|-------------------------|
-------5-----3--2h3h2-0-----|----------------------3--|
----3--3--3--------------3--|--3---3----3----3--3--1--|
----------------------------|--3---3-3--3----3--3-----|



-------------------------|-------------------------|-------------------------|
-------------------------|-------------------------|-------------------------|
-------------------------|-------------------------|-------------------------|
-------3-----3-----3-----|--7---7---------------5--|-------5-----5-----5-----|
----1--1--1--1--1--1--1--|--5---5-5--0----------3--|----3--3--3--3--3--3--3--|
-------------------------|-----------0----2--3-----|-------------------------|



-----------------------|---------------------|-------------------------|
-----------------------|---------------------|-------------------------|
-----------------------|---------------------|-------------------------|
-----------------------|---------------------|--7---7---------------5--|
--3-------3------3--3--|--5-------5----------|--5---5-5--0----------3--|
--3----3--3------3--3--|--5----5--0----------|-----------0----2--3-----|



----------------------------|-------------------------|
----------------------------|-------------------------|
----------------------------|-------------------------|
-------5-----3--2h3h2-0-----|----------------------3--|
----3--3--3--------------3--|--3---3----3----3--3--1--|
----------------------------|--3---3-3--3----3--3-----|



-------------------------|-------------------------|-------------------------|
-------------------------|-------------------------|-------------------------|
-------------------------|-------------------------|-------------------------|
-------3-----3-----3-----|--7---7---------------5--|-------5-----5-----5-----|
----1--1--1--1--1--1--1--|--5---5-5--0----------3--|----3--3--3--3--3--3--3--|
-------------------------|-----------0----2--3-----|-------------------------|



-----------------------|---------------------|------------------|----------|
-----------------------|---------------------|------------------|----------|
-----------------------|---------------------|------------------|----------|
-----------------------|---------------------|------------------|----------|
--3-------3------3--3--|--5-------5----------|------------------|----------|
--3----3--3------3--3--|--5----5--0----------|------------------|----------|




-|------------------------------|
-|------------------------------|
-|------------------------------|
-|------------------------------|
-|--0-11b-0-10b-0-9b-0-7b0-5b---|



------------------------------|------------------------------|
------------------------------|------------------------------|
------------------------------|------------------------------|
------------------------------|------------------------------|
------------------------------|------------------------------|
--0-11b-0-10b-0-9b-0-7b0-5b---|--0-11b-0-10b-0-9b-0-7b0-5b---|



------------------------------|------------------------------|
------------------------------|------------------------------|
------------------------------|------------------------------|
------------------------------|------------------------------|
------------------------------|------------------------------|
--0-11b-0-10b-0-9b-0-7b0-5b---|--0-11b-0-10b-0-9b-0-7b0-5b---|



------------------------------|------------------------------|
------------------------------|------------------------------|
------------------------------|------------------------------|
------------------------------|------------------------------|
------------------------------|------------------------------|
--0-11b-0-10b-0-9b-0-7b0-5b---|--0-11b-0-10b-0-9b-0-7b0-5b---|



------------------------------|--------------------||
------------------------------|--------------------||
------------------------------|--------------------||
------------------------------|--------------------||
------------------------------|--------------------||
--0-11b-0-10b-0-9b-0-7b0-5b---|--0-0---------------||