Babes In Toyland — The Quiet Room

На этой странице Вы можете ознакомиться с 2 версиями подбора аккордов для гитары к песне "The Quiet Room" группы (исполнителя) "Babes In Toyland".

The Quiet Room
tabbed by Julien Gros
1 2 3 4 5
----0---0-------|0---0---0---0-0-|0-0-----0---0---|----0---0-------|0---0-------0--- E
3-----3---3-2---|--2---2---------|----0-----0---2-|3-----3---3-----|--------0-----0- B
--4-------------|----------------|----------------|------------2---|--2---2--------- G
0-------0-0-----|----------------|----------------|0-------0-0-----|---------------- D
------------4---|----4-4-3-------|3-3-2-------2-4-|------------0---|----0-0-2------- A
----------------|----------------|----------------|----------------|---------------- D

6 7 8 9 10
----------0-----|----0---0-------|0---0---0-----0-|--0-----0-------|----0-----0----- E
----0-------0-2-|3-----3---3-2---|--2---2-----0---|0---0-----0-0-2-|3-----3-3------- B
3---------------|----------------|----------------|----------------|------------2--- G
----------------|0-------0-0-----|----------------|----------------|0-------0-0----- D
1---2-------2-4-|------------4---|----4-4-3-----3-|2-3-2-------2-4-|------------0--- A
----------------|----------------|----------------|----------------|---------------- D

11 12 13 14 15
0---0-------0---|----------0-----|----1---1-------|3---3---4-,-4---|4-4-4-3-3---3--- E
--------0-----0-|----0-------0-,-|3-3---------3-3-|----------------|--------------3- B
--2---2---------|3---------------|----------------|----------------|---------------- G
----------------|----------------|------------0---|----0-0---------|----0---0---0--- D
----0-0-2-------|1---2-----------|----------------|----------------|---------------- A
----------------|----------------|0-------0-0-----|--------0-------|0-0------------- D

16 17 18 19 20
----1---1-------|1---1-------1-,-|1---4---3---1---|----1---1-1-1h3-|3-----3-3h4-4--- E
--3---3-------3-|----------3-----|--------------3-|--3---3---------|--3-----------3- B
2---------3-3---|--3---3-3-------|----------------|2---------------|---------------- G
------------0---|----0-0---------|----0---0---0---|------------0---|----0-0--------- D
----------------|----------------|----------------|----------------|---------------- A
0-------0-0-----|--------0-------|0-0-------------|0-------0-0-----|---------------- D

21 22 23 24 25
--4-4p3-3---3---|----1---1-------|1---0-------0---|0-,-0-----------|---------------- E
----------3---3-|--3---3-------3-|--3-------2-----|2---2-----------|----0---1---3--- B
----------------|3---------3-3---|------3-2-------|----------------|--2------------- G
----0---0---0---|------------0---|----0-0---------|----------------|---------------- D
----------------|----------------|--------0---0---|0---0-----------|---------------- A
0-0-------------|0-------0-0-----|----------------|----------------|0-------0-0-3--- D

26 27 28 29 30
----------------|----------------|----------------|----0---1-------|---------------- E
1-,-0-------0---|1---0-----0---0-|3---0---1---3---|1---0-3-----0---|1---0---0---0-0- B
----------2-----|--------2-------|--2-------------|----------2-----|---------------- G
----------------|----------------|----------------|----------------|---------------- D
--------3-------|3-2-2-------2-2-|----------------|--------3-------|3-2-2-------2-2- A
----3-3---------|----------------|0-------0-0-3---|----3-3---------|---------------- D

31 32 33 34 35
----------------|----------------|----------------|----------------|---------------- E
3---0-1-3-3-1---|3-1-3-1-0-3-3-0-|3-0---3-3-3-3-3-|--3-0-1-3-3-1---|3-1-3-1-0-3-3-0- B
--2-------------|----------------|----3-----------|2---------------|---------------- G
0-------0-0-----|----------------|----------------|0-------0-0-----|---------------- D
------------3---|----3-3-2-------|2-2-1-------1-1-|------------3---|----3-3-2------- A
----------------|----------------|----------------|----------------|---------------- D

36 37 38 39 40
----------------|----------------|----------------|----------------|--------0---0--- E
3-0-----3---3---|----0-1-3-3-1---|3-1-3-1-0-3-3-0-|3-0-3-----------|----------3---3- B
----3-3---------|--2-------------|----------------|----------------|2 / 7----------- G
----------------|0-------0-0-----|----------------|----------------|---------------- D
2-2-1-------1-1-|------------3---|----3-3-2-------|2-2-1-----------|---------------- A
----------------|----------------|----------------|----------------|---------------- D

41 42 43 44 45
----0---0---0---|--0---0-----0---|--------0---0---|----0---0-------|0-------------0- E
2-----2---2-----|0---0---0-----0-|0-2-3-----3---3-|------------0---|--0-----0------- B
----------------|----------------|----------------|2-----2---2-----|----3----------- G
----------------|----------------|----0-------0-0-|----------------|---------------- D
4-------4-4-3---|--3-2-3-2-------|2-4-------------|0-------0-0-2---|----1---2------- A
----------------|----------------|----------------|----------------|---------------- D

46 47 48 49 50
--------0---0---|----0---0---0---|0-0-0-0-----0---|--------0---0---|----0---0------- E
0-2-3-----3---3-|2-----2---2-----|--------0-----0-|0-2-3-----3---3-|------------0--- B
----------------|----------------|----------------|----------------|2-----2---2----- G
----0-------0-0-|----------------|----------------|----0-------0-0-|---------------- D
2-4-------------|4-------4-4-3---|----3-3-2-------|2-4-------------|0-------0-0-2--- A
----------------|----------------|----------------|----------------|---------------- D

51 52 53 54 55
0-------------0-|--------1---1---|----3---3-3-3h4-|4-----4-4p3-3---|--3-------6----- E
--0-----0-------|0-,-3-----3-----|3-3-------------|--3-----------3-|3-----3-6---6--- B
----3-----------|----------------|----------------|----------------|----3---------3- G
----------------|----------------|0-------0-0-----|--------0---0---|0--------------- D
----1---2-------|----------------|----------------|----------------|---------------- A
----------------|----0-------0-0-|------------0---|----0-0---------|----0-------0-0- D

56 57 58 59 60
------6---------|--6-----4---3---|1-------1---1-1-|1h3-3-----3-3h4-|4-----4-4p3-3--- E
--3-6---6-----3-|6---6-----------|--3---3---3-----|------3---------|--3-----------3- B
3---------3-3---|----------------|----2-----------|----------------|---------------- G
0-------0-0-----|--------0---0---|0---------------|0-------0-0-----|--------0------- D
----------------|----------------|----------------|----------------|---------------- A
------------0---|----0-0---------|----0-------0-0-|------------0---|----0-0--------- D

61 62 63 64 65
--3-------6-----|------6-----5---|0---0-,-0-------|----------------|---------------- E
3-----3-6---6---|--3-6---6-------|----------------|----0---1---3---|1---0-------0--- B
----3---------3-|3---------3---6-|----6---6-------|--2-------------|----------2----- G
0-0-------------|0-------0-0-----|----------------|----------------|---------------- D
----------------|------------0---|0---0---0-------|----------------|--------3------- A
----0-------0-0-|----------------|----------------|0-------0-0-3---|----3-3--------- D

66 67 68 69 70
----------------|----------------|----------------|----------------|---------------- E
1---0---3-1-0-0-|3---0---1---3---|1---0-------0---|1---0---3-1-0---|3---0-1-3-3-1--- B
----------------|--2-------------|----------2-----|----------------|--2------------- G
----------------|----------------|----------------|----------------|0-------0-0----- D
3-2-2-------2-2-|----------------|--------3-------|3-2-2-------2-2-|------------3--- A
----------------|0-------0-0-3---|----3-3---------|----------------|---------------- D

71 72 73 74 75
----------------|----------------|----------------|----------------|---------------- E
3---3---0---3-0-|3-0---3-3-3-3---|3---3---3---1---|3-1-3-1-0-3-3-0-|3-0---3-3-3-3--- B
----------------|----3---------2-|--2-------------|----------------|----3---------2- G
----------------|----------------|0-------0-0-----|----------------|---------------- D
----3-3-2-------|2-2-1-------1-0-|------------3---|----3-3-2-------|2-2-1-------1-0- A
----------------|----------------|----------------|----------------|---------------- D

76 77 78 79 80
----------------|----------------|----------------|--------0-0-----|---------------- E
----3---3---1-1-|3-1-3-1-0-3-3-0-|3-0-3-----------|----3-3-----3---|----2----------- B
2-2-------2-----|----------------|----------------|2-2-----------2-|2---3----------- G
0-------0-0-----|----------------|----------------|----------------|----0----------- D
------------3---|----3-3-2-------|2-2-1-----------|----------------|---------------- A
----------------|----------------|----------------|----------------|---------------- D


/ : slide - : sixteenth note (e.g. : 3 is a sixteenth note, 3- is a eighth note
h : hammer on -- : eighth note and 3--- is a quarter note)
p : pull off ---- : quarter note
,- : quarter rest tuning : dropped D ; 4/4 Any suggestion at julien.gros2@free.fr

The Quiet Room (Babes In Toyland, written by Kat Bjelland and Courtney Love as they
were actually in their former band sugar baby doll)
#----------------------------------PLEASE NOTE---------------------------------#
#This file is the author's own work and represents their interpretation of the #
#song. You may only use this file for private study, scholarship, or research. #
#------------------------------------------------------------------------------#
#

From: Kandydol@aol.com
Date: Tue, 4 Nov 1997 01:35:49 -0500 (EST)
Subject: *The Quiet Room* tab by Babes in Toyland

~Tabbed by *Bad*Head*Grrrl* (gch007@inforamp.net)
QUIET ROOM originally written by SugarBabyDoll (Kat Bjelland, Jennifer
Finch, Courtney Love). It's featured on the -Babes in Toyland- To Mother
mini-album and Fontanelle.

*THE QUIET ROOM*

MUST BE IN DROPPED D TUNING
THE OPENING RIFF...
E-----0---0-----0---0-----0---0------0----------------|E
B-------0----------0----------0-----------0-----------|B
G-----------------------------------------------------|G
D----0------0-----------2----------2------------------|D
A-------------4-------4-----------2-----2----4--------|A
D-----------------------------------------------------|D

E-----0---0---------0----0--------0--------------0-----------------|E
B-------0--------------0--------------0-----------0----------------|B
G------------------------------------------------------------------|G (PLAYED
2 TIMES)
D---0--------0-----------------------------------------------------|D
A---------------0------------0--2---------1--2--------2--4---------|A
D------------------------------------------------------------------|D

E--------1---1---------3---3-------4---4----4--3---3--3--------------|E
B----------3--------------5-----------6-------6--5---5--5------------|B
G---------------------------------------------------------------------|G (PLAY 2 TIMES)
D-------------------0----------0--------------------------------------|D
A---------------------------------------------------------------------|A
D----0----------0-----------------0-----------------------------------|D

E-------1---1----------1---1---------1---1-------4-----3------1---------------|E
B---------3---------------3-------------3-------------3------3-----3----------|B
G----3--------------3-------------3-------------------------------------------|G
D----0--------------0-------------0-------------------------------------------|D
A-----------------------------------------------------------------------------|A
D---------------0-------------0---------------0-------------------------------|D

...AND END THAT PART WITH THIS...
E--------0---0--------0---------|E
B----------2-----------2--------|B
G----------------------2--------|G
D----------------2----2---------|D
A----0----------------0---------|A
D-------------------------------|D

E-------------------------------------------------------------------|E
B---------0---1---3---1---0-------0---1---0---3---1---0-------------|B
G----2--------------------------2-----------------------------------|G (PLAY 2 TIMES)
D-------------------------------------------------------------------|D
A-------------------------------------------------------------------|A
D-------------------------------------------------------------------|D

THEN JUMP TO THIS...
E-------------------------------------------------------------|E
B----0---1---3------3---1---3------3---3------3---3-----------|B
G-------------------------------------------------------------|G (PLAY 3 TIMES)
D-------------------------------------------------------------|D
A-------------------------------------------------------------|A
D-------------------------------------------------------------|D


...AND THE ENDING....
E---------------------3----2--------------------2---------|E
B---2-------------------3--------3-----3-------3----------|B
G------2---------2------------------2-----------2---------|G
D---------0--------------------------------------0--------|D
A---------------------------------------------------------|A
D---------------------------------------------------------|D


This tab was done by BadHeadGrrl who runs *The Quiet Room- a Babes in Toyland
page* (at http://www.inforamp.net/~gch007/babes/babes.htm) but since I
haven't seen the tab here, I figured I should send it. All mail should be
sent to her!!