Bachelor Girl — Blown Away

Title: Blown Away
Artist: Bachelor Girl
Album: Waiting For The Day


Chords:
Em 022000 Dsus4 xx0233
D xx0232 Csus2 x30033
Cmaj7 x32000 (no 3rd)
G 320033 Bbsus2 x13311
C x32033 Em7 022033
G/B x20033 Am x02210

Intro


Em D Cmaj7 D Em D

e----7-|-7--5-5-----------|-----------------7-|-7--5-5-----------|
b------|---------8-8--7-7-|-5-5--5------------|---------8-8--7-7-|
g------|------------------|--------7----------|------------------|
d------|------------------|-------------------|------------------|
a------|------------------|-------------------|------------------|
e------|------------------|-------------------|------------------|


Cmaj7 D
e--5-5--5----------|
b---------7--------|
g------------------|
d------------------|
a------------------|
e------------------|


Verse |Em D |Cmaj7 D |Em D |Cmaj7 D |

|Em D |Cmaj7 D |Em D |Cmaj7 D |


Em D Cmaj7 D
Turn out the lights, see what I've been seein'

Em D Cmaj7 D
This is the love that I have not been feelin'

Em D Cmaj7 D
A chill in the bone as it begins to change

Em D Cmaj7 D
Don't look at me cos things are not the same, Yeah


Pre Chorus


G C G/B C
e---5-----------|---5-----------|---5-----------|------------5--|
b------8--7--8--|------8--7--8--|------8--7--8--|---5--7--8-----|
g---------------|---------------|---------------|---------------|
d---------------|---------------|---------------|---------------|
a---------------|---------------|---------------|---------------|
e---------------|---------------|---------------|---------------|


G C Am Dsus4
e---5-----------|---5-----------|---5-----------|------------5--|
b------8--7--8--|------8--7--8--|------8--7--8--|---5--7--8-----|
g---------------|---------------|---------------|---------------|
d---------------|---------------|---------------|---------------|
a---------------|---------------|---------------|---------------|
e---------------|---------------|---------------|---------------|


G C
You know I am I am

G/B C
And I will be closer to you


Than you to anyone

G C
You know I cannot see

Am
The earth, the sun

Dsus4
For all the damage we have done


Chorus |Csus2(No 3rd) | G | Csus2(No 3rd) | Em |

|C | G | Bbsus2 | Dsus4 |


Csus2(n3) G
Oooh - So tired of playing in the water

Csus2(n3) Em
Oooh - Don't wanna be your saint, your martyr

C G Bbsus2
So sorry babe - So sorry baby its my mistake

Dsus4
The years have blown away


Play Intro Here

Verse

Em D Cmaj7 D
Hold down the dog I'm here to raise this ceiling

Em D Cmaj7 D
These are the walls I cannot believe in, yeah

Em D Cmaj7 D
A quarter to four it all begins to tell

Em D Cmaj7 D
Don't talk to me cos nothings gonna sell


Pre Chorus

G C
You know I am I am

G/B C
And I will be closer to you


Than you to anyone

G C
You're so full of conceit

Am
You beg to be undone

Dsus4
You torment just for fun

Play Chorus


Play Intro


Interlude | Em7 | Csus2(n3) | Dsus4 | Dsus4 |


Play Chorus x3

I'm so tired - So tired of playing in the water
I can't be - Don't wanna be your saint, your martyr
So sorry babe - So sorry baby its my mistake
The years have blown away

So tired of playing in the water
Don't wanna be your saint, your daughter
So sorry baby its my mistake
The years have blown away


Intro til fade