Bachman Turner Overdrive — Hey You

-------------------------------------------------------------------------------
Hey You - BTO
-------------------------------------------------------------------------------

Tabbed by: ZeroisGreatman
Tuning: EADGBe

First Riff:
e|--------------------------------------------------------------|
B|--------------------------------------------------------------|
G|-------------------7-7-7-7--9-9-9-9-----------7-7-6-6-4-4-2-2-|
D|-5-5-5-5--0-0-0-0--7-7-7-7--9-9-9-9--9-9-9-9--7-7-6-6-4-4-2-2-|
A|-5-5-5-5--0-0-0-0--5-5-5-5--7-7-7-7--9-9-9-9--5-5-4-4-2-2-0-0-|
D|-5-5-5-5--0-0-0-0--------------------9-9-9-9------------------|

Second Riff:
e|------------------------------------|
B|------------------------------------|
G|--------------------7-7-6-6-4-4-2-2-|
D|-7----5-0----0-7-5--7-7-6-6-4-4-2-2-|
A|-7----5-0----0-7-5--5-5-4-4-2-2-0-0-|
D|-7----5-0----0-7-5------------------|

Third Riff:
e|------------------------------------|
B|------------------------------------|
G|-------------------7-7-7-7--9-9-9-9-|
D|-7-7-7-7--9-9-9-9--7-7-7-7--9-9-9-9-|
A|-7-7-7-7--9-9-9-9--5-5-5-5--7-7-7-7-|
D|-7-7-7-7--9-9-9-9-------------------|


| / slide up
| slide down
| h hammer-on
| p pull-off
| ~ vibrato
| + harmonic
| x Mute note

===============================================================================