Bachman Turner Overdrive — Not Fragile

На этой странице Вы можете ознакомиться с 2 версиями подбора аккордов для гитары к песне "Not Fragile" группы (исполнителя) "Bachman Turner Overdrive".

-----------------------------------------------------------------------------
Not Fragile - Bachman Turner Overdrive
-----------------------------------------------------------------------------

Tabbed By : Danny Corum
e-mail: Vettedream89@aol.com

Tuning: Standard-EADG

G|---------------------------------|
D|---------------------------------| Play twice
A|---------------------------------|
E|-2-2-2-2-5-0-2---2-2-2-2-5-4-0-2-|

Bridge
G|---------------------------------------------------|
D|---------------------------------------------------|
A|---------------------------------------------------|
E|-2-3--2-3--2-3--2-3--2-3---2-3--2-3--2-3--2-3--2-3-|

Back to Chorus
G|---------------------------------|
D|---------------------------------|
A|---------------------------------|
E|-2-2-2-2-5-0-2---2-2-2-2-5-4-0-2-|
(Intro)
G---------------------------------------]
D---------------------------------------]
A------------3----------------5-3-------] repeat alot of times
E-5-5-5-5-5----3-5--5-5-5-5-5-----3-5---]
Other Part
G---------------------------------]
D---------------------------------]
A-------------5-3-----------------] 2x
E-3-5-3-5-3-5-----3---------------]

It is a fun song to play and easy to.
It is a good song for a band that just started out to play!
ENJOY!:-}
Very Fun to play! Have Fun with it!