Bachman Turner Overdrive — Rock Is My Life And This Is My Song

Tuning:EADGBe

Sustain= <
Up stroke= ^
Down Stroke= ~
Damp = !

Riff A
e|----2--------3-----2-----------------------------------------------------------|
B|----2--------2-----2-----0-----------------------------------------------------|
G|----2--------2-----2-----0------2----------------------------------------------|
D|----2---------------------------2----------------------------------------------|
A|----0---------------------------0----------------------------------------------|
E|-------------------------------------------------------------------------------|
~ ^ ^ ^ ^ ^ ~

Riff B
e|-----------------------------------------------------------------------------|
B|-----------------------------------------------------------------------------|
G|-----------------------------------------------------------------------------|
D|----7----------7-----7-------7-----------------------------------------------|
A|----7----------7-----7-------7-----------------------------------------------|
E|----5-