Backstreet Boys — All I Have To Give

На этой странице Вы можете ознакомиться с 3 версиями подбора аккордов для гитары к песне "All I Have To Give" группы (исполнителя) "Backstreet Boys".

INTRO of BacksTreeT BoiZ [all i have to give]
TabbEd by [joseph vee]

NoTe~** = Play with the song and EVENTUALLY you'll get the hang of it!!

E----------------------------------------------------------------|
B---3----2p3h2---------3---3---------3-----2p3h2-----2-----2/3---|
G---4----2-----2-----0---0---0-------4-----2------2--2-----2-----|
D------------------4---------------------------------------------|
A-----0----------2----------------------0------------------------|
E-3-------------------------------3------------------2--2--------|

This is prolly the closest tab you'll get to the intro!! =p
If u don't like it its not my problem.

Laay8erz!!!!
from the album
BACKSTREET BOYS
Chord´s by J.Rufino junn@skyinet.net
Intro: G A Bm (2x)
G A Bm G A Bm
I dont know what he does to make you cry , but I´ll be there to make you smile
G A Bm D G A D
I dont have fancy cars to get to you , I walk a thousand miles
G A Bm G A Bm
I dont care if he buy´s you nice thing´s , does his gift´s come from the heart ?
G A Bm G A D
I dont know but if you were my girl , I´ll make it sure we´ll never be apart
CHORUS:
G A Bm G A Bm
But my love is all I have to give , without you I dont think I can live
G A D G A Bm
I wish I could give the world to you , but love is all I have to give
When he talks does it seem like his not , been listening to a word you say
That´s o.k. baby just tell me all your problem´s , I´ll my best to kiss them all away
Does he leave when you need him the most, does his friend´s get on your side ?
Baby please I´m on my knees , begging for a place inside you´re heart (?)
REPEAT CHORUS BRIDGE:
G A Bm D
(Hey girl) Hey girl , I don´t want to hide no more inside
G A D G A D
All the money in the world can never add up to all the love I have inside
I love you......................................( G,D,G,D ) D G
My love is all!!! ( i have to give )
Capo 1st
*notes relative to capo*
*incase you don't notice use your fingers not a pick*
*many of the bass notes are played fast and may not sound noticable*

E----------------------------------------------
B---1----1p0h1-----1-----1----1---0--------0---
G--------0-----0---------0-----------------0---
D---3------------------3------3---0----2-----3-
A----------------0---0-------------------------
E-1---3---------------------1---3-3--0---0---1-

This sounds pretty much correct to me
-Steven