Backstreet Boys — I Want It That Way

На этой странице Вы можете ознакомиться с 8 версиями подбора аккордов для гитары к песне "I Want It That Way" группы (исполнителя) "Backstreet Boys".

Song: I Want It that Way
Artist: Backstreet Boys




Intro: Picking chords of Amaj and E
( I heard this song once )


A F# E
You are my fire

A F# E
My one desire

A F# E
Blah blah blah when you say

F# E A
I want it that way

F# E A ( Repeat this over and over )
Tell me why......

( Key Change each time will go from an A to a Bb and thats bout all


Greenflye@aol.com
Song: I Want It That Way
Artist: Backstreet Boys

I've read the previous authors tablature and found a grip of mistakes.
This one is much better!!!

Tabbed by GoodCompNE@aol.com (Lyndon)

Standard eBGDAE tuning.

Intro: (Picking) Not exact, but it sounds good!

e-------------------------------------|
B-----2-----3-2--------2------3-2-----|
G---2---2-------2----2------2-----3---|
D-2-------2---------------------------|
A------------------2------0---------0-|
E-------------------------------------|

Verse: A, E
A E A
And we, are two worlds apart
E A
Can't reach to your heart...

Chorus: D, E, A
D E A
Tell me why, Ain't nothing but a heartache
D E A
Tell me why, Ain't nothing but a mistake


VerseII
Chorus

Bridge: A, E
A
Now I can see that we're falling apart, from the way
E
it used to be.
A
No the matter distance, I want you to know, that deep
E
down inside of me.

VerseI: (Picking)
Chorus: Instead of playing ->(D, E, A) Play ->(E, F#, B)

Wassup! Edward, Jeff, Tyrone, Erwin!!! it's me Lyndon!!!
I want it that way - Backstreet Boys
= = = = = = = = = = = = = = = = = =

Place a capo on the 4th fret.

Chords used:
Em = 022000 C = 032010 G = 320033/320003
B7x = 021200 C1 = 032013 D = x00232


Intro: Em C G
yeahheah
E:= ---------------------------------------------------------
A= ------------ 0 ------- 1r0 -------- 1 --------- 2r0 ----
D= -------------- 0 --------- 0 ---------------- 0 --------- ( repeat)
G= ---------------- 2 ------------- 2 -------- 0 -----------
B= -------- 2 ------------------ 3 --------- 2 -------------
E= ------ 0 ------------------------------------------------


Play the intro till the D-Chord. Then hit D and G chord once/
Questions, corrections, mail to: utahjazz@planet.nl

(play intro...) D G
You are my fire, the one desire, Believe, when I say I want it that way
Em C G Em C G Em C G
But we are two worlds apart, can`t reach to your heart, when you say
Em D G
that, I want it that way

C1
Tell me why, D G
Aint nothing but a heartache,
Tell me why
Aint nothing but a mistake
Tell me why D G
I never wanna hear you say , I want it that way

Em C G Em C G Em C G Em D G
Am I your fire, your one desire, believe, when I say, that I want it that way

C1
Tell me why, D G
Aint nothing but a heartach
Tell me why,
Aint nothing but a mistake
Tell me why, D G Em B7X
I never wanna hear you say, I want it that way


Em C G Em C D
Now I can see that we`re falling apart, from the way that it used to be, yeah,
No matter the distance , I want you to know, that deep down inside of me....
Em C G Em C Em D G
You are my fire, the one desire, You are ( you are, you aaare)


Don`t wanna hear you say.........
C1 D G
Aint nothing but a heartache,
Aint nothing but a mistake
I never wanna hear you say, I want it that way ( 2 keer )
C1
Tell me why, D G
Aint nothing but a heartache
Tell me why------------------------yyyyyyyyyyy
-- Aint nothing but a mistake------ D G
Tell me why, I never one hear you say, I want ith that way


======
Artist: Backstreet Boys
Title: I want it that way

Tabbed by: Matt Corkum
(radiohead98@yahoo.com)

Drop D Tuning! (Tune your E string down a whole step (2 notes)
to D. The 12th fret of the E should be the same the open D string.

Also, the recording itself is tuned down approx 1/4 step, so you'll
have to do the same if you wish to play along.

This is just the basic tab. There are a couple of octave fills, etc.,
but this will get the song going.

Guitar Chords are listed above the bass tabs and in conjunction with
the lyrics.

Intro:

F#m D A (x2)
G-------------
D-------------
A----------0--
D--4---0------


Verse:
You are[F#m], my [D]fire [A],
The [F#m]one, [D]desire[A],
Believe[F#m], when[D] I [A]say,
G------------------------------
D------------------------------
A---------------------------0--
D--------4---------0-----------

[F#m]I want it [E]that [A]way
G------------------------------
D------------------------------
A---------------------------0--
D-----4-------------2----------


But we, are two worlds
apart, Can't reach to,
your heart, When you say,
G-------------------------------------
D-------------------------------------
A--------------------------0-0-0-0-0--
D--4-4-4-4-4-4-4-4-4-0-0-0------------

That I want it that way
G-----------------------------------
D-----------------------------------
A------------------------0-0-0-0-0--
D--4-4-4-4-4-4-4-4-2-2-2------------


Chorus:
Tell me [D]why, (Ain't nothin' but a [E]heart[F#m]ache)
Tell me [D]why, (Ain't nothin' but a [E]mist[F#m]ake)
G------------------------------------------------------
D------------------------------------------------------
A--------5--5--5--5--5--5--5--5------------------------
D-------------------------------------2-2-2-4-4-4-4-4--

Tell me [D]why, I never wanna [E]hear you [A]say
G-----------------------------------------------------
D-----------------------------------------------------
A--------5-5-5-5-5-5-5-5-------------------0-0-0-0-0--
D------------------------------2-2-2------------------

[F#m]I want it [E]that [A]way
G-----------------------------------
D-----------------------------------
A------------------------0-0-0-0-0--
D--4-4-4-4-4-4-4-4-2-2-2------------

Verse: (Same as first verse)
Am I, your fire,
Your one, desire,
Yes I know, it's too late,
But I want it that way

Chorus:
Tell me why, (Ain't nothin' but a heartache)
Tell me why, (Ain't nothin' but a mistake)
Tell me why, I never wanna hear you say
Same as first verse, then:

[F#m]I want it [C#]that way
G-----------------------------------
D-----------------------------------
A------------------4-4-4-4-4-4-4-4--
D--4-4-4-4-4-4-4-4------------------


Bridge:
[F#m]Now I can see that we're [A]fallin' apart,
G--------------------------------------------------------
D--------------------------------------------------------
A--------------------------------0--0--0--0--0--0--0--0--
D--4--4--4--4--4--4--4--4--------------------------------

>From the [D]way that it used to [E]be, (Yeah)
G------------------------------------------------
D------------------------------------------------
A--------5-5-5-5-5-5-5-5-------------------------
D-------------------------------4-4-4-4-2-2-2-2--

No [F#m]matter the distance, I [A] want you to know
G------------------------------------------------
D------------------------------------------------
A-------------------------------0-0-0-0-0-0-0-0--
D-----4--4--4--4--4--4--4--4---------------------

That [D]deep down inside of [E]me...
G---------------------------------------
D---------------------------------------
A-------------------5---5----7-7-7-7-7--
D----0-0------0/5-----------------------

Verse (N.C.):
You are, my fire,
The one, desire,
You are, You are, You are, You are...

Chorus:
(Don't wanna hear you say)

[E]Ain't nothin' but a [F#]heart[G#m]ache,
[E]Ain't nothin' but a [F#]mist [G#m]ake,
G--------------------------------------------------
D--------------------------------------------------
A--------------------------------------------------
D--2--2--2--2--2--2--2--2--4--4--4--6--6--6--6--6--

[E]I never wanna [F#]hear you [B]say,
G----------------------------------------------
D----------------------------------------------
A-------------------------------2--2--2--2--2--
D--2-2-2-2-2-2-2-2---4--4--4-------------------

[G#m]I want it [F#]that [B]way
G------------------------------------
D------------------------------------
A-------------------------2-2-2-2-2--
D--6-6-6-6-6-6-6--4--4--4------------

Same...
Tell me [E]why, (Ain't nothin' but a [F#]heart[G#m]ache)
Tell me [E]why, (Ain't nothin' but a [F#]mist[G#m]ake)
Tell me [E]why, I never wanna [F#]hear you [B]say
[G#m]I want it [F#]that [B]way

Tell me [E]why, Ain't nothin' but a [F#]heart[G#m]ache,
[E]Ain't nothin' but a [F#]mist[G#m]ake,
Tell me [E]why, I never wanna [F#]hear you [B]say,

(Don't wanna hear you say it)

[G#m]I want it [F#]that [B]way
I want it that way

End on B (A string - 2)

Enjoy.
Artist: Backstreet Boys
Song: I want it that way
Album: Millennium
Tabbed By: Chris Fretwell (e-mail: gimp69@home.com)

Chords Used:
A major: (x02220)
F# major: (xx4322)
E major: (022100)

Into: finger picking

A F# E
You are_____ my fire__________
1|-------------------------------------2----------0-|
2|-------------2------3------------2----------0-----|
3|----------2----2----------------------------------|
4|-------2---------2------------4----------2--------|
5|--------------------------------------------------|
6|--------------------------------------------------|

A F# E
The one_____ de___sire__________
1|-------------------------------------2----------0-|
2|-------------2------3------------2----------0-----|
3|----------2----2----------------------------------|
4|-------2---------2------------4----------2--------|
5|--------------------------------------------------|
6|--------------------------------------------------|

A F# E
Believe______ when I____ say_____
1|-------------------------------------2---------0--|
2|-------------2------3------------2---------0------|
3|----------2----2----------------------------------|
4|-------2---------2------------4---------2---------|
5|--------------------------------------------------|
6|--------------------------------------------------|






A F# E
I______ want it that way
1|---------------------2----0--|
2|--------2------3-----2----0--|
3|-----2----2----------3----1--|
4|--2---------2--------4----2--|
5|--------------------------2--|
6|--------------------------0--|


A F# E
But we______ are__ two___ worlds afar
1|-------------------------------------2----------0-|
2|-------------2------3------------2----------0-----|
3|----------2----2----------------------------------|
4|-------2---------2------------4----------2--------|
5|--------------------------------------------------|
6|--------------------------------------------------|

A F# E
And__ reach__to your heart
1|-------------------------------------2----------0-|
2|-------------2------3------------2----------0-----|
3|----------2----2----------------------------------|
4|-------2---------2------------4----------2--------|
5|--------------------------------------------------|
6|--------------------------------------------------|

A F# E
When you___ say____
1|-------------------------------------2----------0-|
2|-------------2------3------------2----------0-----|
3|----------2----2----------------------------------|
4|-------2---------2------------4----------2--------|
5|--------------------------------------------------|
6|--------------------------------------------------|

A F# E
I______ want it that way
1|---------------------2----0-|
2|--------2------3-----2----0-|
3|-----2----2----------3----1-|
4|--2---------2--------4----2-|
5|--------------------------2-|
6|--------------------------0-|

Chorus:


Tell me why
F# E A
(Ain't nothin' but a heartache)
Tell me why
F# E A
(Ain't nothin' but a mystery tell me why)
F# E A
I never want to hear you say
A F# E
I want it that way


A F# E
Am I______ your fire______
(Am I)
1|-------------------------------------2---------0--|
2|-------------2------3------------2---------0------|
3|----------2----2----------------------------------|
4|-------2---------2------------4---------2---------|
5|--------------------------------------------------|
6|--------------------------------------------------|

A F# E
Your one______ desire______
(desire)
1|-------------------------------------2---------0--|
2|-------------2------3------------2---------0------|
3|----------2----2----------------------------------|
4|-------2---------2------------4---------2---------|
5|--------------------------------------------------|
6|--------------------------------------------------|

A F# E
It's too_____ late
1|-------------------------------------2---------0---|
2|-------------2------3------------2---------0-------|
3|----------2----2-----------------------------------|
4|-------2---------2------------4---------2----------|
5|---------------------------------------------------|




A F# E
But I______ want it that way
1|---------------------2----0--|
2|--------2------3-----2----0--|
3|-----2----2----------3----1--|
4|--2---------2--------4----2--|
5|--------------------------2--|
6|--------------------------0--|

Chorus:

Tell me why
F# E A
(Ain't nothin' but a heartache)
Tell me why
F# E A
(Ain't nothin' but a mystery tell me why)
F# E A
I never want to hear you say
A F# E
I want it that way


A F# E
Now I can see that we're falling apart
1|-------------------------------------------|
2|--------2-------2---------------2-------0--|
3|-----2------------------------3-------1----|
4|--2---------2--------------4-------2-------|
5|-------------------------------------------|
6|-------------------------------------------|

A F# E
From the way that it used to be (yeah)
1|-------------------------------------------|
2|--------2-------2---------------2-------0--|
3|-----2------------------------3-------1----|
4|--2---------2--------------4-------2-------|
5|-------------------------------------------|
6|-------------------------------------------|

No matter the distance I want you to know
1|-------------------------------------------|
2|--------2-------2---------------2-------0--|
3|-----2------------------------3-------1----|
4|--2---------2--------------4-------2-------|
5|-------------------------------------------|
6|-------------------------------------------|

That deep down inside of me__________
1|------0----------------------------------------|
2|------2-------------------------2-------0------|
3|------2-------------------------3-------1------|
4|------2-------------------------4-------2------|
5|------0---------------------------------2------|
6|-----------------------------------------------|


You are my fire
The one desire
You are (you are, you are, you are)

Don't want to hear you
F# E A
Ain't nothin' but a heartache
F# E A
Ain't nothin' but a mystery (Don't want to hear you say)
F# E A
I never want to hear you say (Oh yeah)
A F# E
I_________ want it that way

Tell me why________
F# E A
(Ain't nothin' but a heartache)
(Tell me why)
F# E A
(Ain't nothin' but a mystery tell me why)
F# E A
I never want to hear you say
(Don't want to hear you say)
A F# E
I want it that way

Tell me why
F# E A
(Ain't nothin' but a heartache)
Tell me why
F# E A
(Ain't nothin' but a mystery tell me why)

F# E A
I never want to hear you say

I want it that way

Cause I want it that way
------------------------------------------------------------------------------------------------------------------
This sounds just like the song to me, but if you have any suggestions or comments e-mail me at:
gimp69@home.com
Backstreet Boys, I Want It That Way.
Tabbed by Travis Gasa, smartbomber@aol.com.

Backstreet Boys
I Want It That Way
Millennium Album

Tabbed By: Travis Gasa
e-mail: smartbomber@aol.com

I don't really like the Backstreet Boys, but the guitar in some of
their songs sounds pretty cool.

I looked everywhere for tabs for this song, but they were all wrong.
The intro is tabbed exactly as it is played in the song. The chords
I have tabbed sound correct. My version should also be very easy to
follow.

The song changes key halfway through. After the tabbed guitar part in
the bridge, the song climbs one whole-step higher. Before this part,
the D chord should be played normally. After this point the D should be
played as noted. The Em-1 chord shown in the bridge is not really
called that. I just don't know the name, so I'm just calling it Em-1. I
tried to tab this song to the correct beat, although you may find it
isn't. The best solution is to listen to the song and figure out the
correct beat that way.

Chords: | 2nd half:
|
D Em C G E A Em-1 Am Dsus4 F#m | D
|
-2- -0- -3- -3- -0- -0- -0- -0- -3- -2- | -0-
-3- -0- -5- -3- -0- -2- -0- -1- -3- -2- | -3-
-2- -0- -5- -4- -1- -2- -0- -2- -2- -2- | -2-
-0- -2- -5- -5- -2- -2- -0- -2- -0- -4- | -0-
-x- -2- -3- -5- -2- -0- -2- -0- -x- -4- | -x-
-x- -0- -x- -3- -0- -x- -x- -x- -x- -2- | -x-

Order of song:
Intro
Verse 1
Chorus
Verse 2
Chorus
Bridge
Chorus #2
Chorus #2 (yes again)
Ending

Capo 2nd fret for entire song

Intro:


[E]---------------------------------|---------------------------------
[B]-----0-----1p0-------0-------3---|-----0-----1p0-------0-------3---
[G]-------0-------0-----------0---0-|-------0-------0-----------0---0-
[D]---2-----2---------2-----0-------|---2-----2---------2-----0-------
[A]-----------------3---------------|-----------------3---------------
[E]-0---------------------3---------|-0---------------------3---------
Yeah... You are

[E]---------------------------------|---------------------------------
[B]-----0-----1p0-------0-------3---|-----0-----1p0-------0-------3---
[G]-------0-------0-----------0---0-|-------0-------0-----------0---0-
[D]---2-----2---------2-----0-------|---2-----2---------2-----0-------
[A]-----------------3---------------|-----------------3---------------
[E]-0---------------------3---------|-0---------------------3---------
my fire the one desire believe
Em D G
[E]---------------------------------|-0------------------2-------3----
[B]-----0-----1p0-------0-------3---|-0---0-----1p0------3-------3----
[G]-------0-------0-----------0---0-|-0-----0-------0----2-------4----
[D]---2-----2---------2-----0-------|-2-2-----2----------0-------5----
[A]-----------------3---------------|-2--------------------------5----
[E]-0---------------------3---------|-0--------------------------3----
when I say I want it that way

VERSE 1:
Em C G Em
But we are two worlds apart
C G Em
Can't reach to your heart
C G
When you say
Em D G
That I want it that way


CHORUS:
C
Tell me why
D G
(Ain't nothin' but a heartache)
C
Tell me why
D G C
(Ain't nothin' but a mistake tell me why)
D G
I never wanna hear you say
Em D G Em B
I want it that way From the way that it used to be, yeah
Em Em-1
No matter the distance I want you to know
Am Dsus4 D
That deep down inside of me

(NO CHORDS)
You are my fire

The one desire

You are, you are, you are, you are

[E]-----0-----3---3/7-----5-----
[B]-----0-----------------------
[G]-----0-----------------------
[D]-----2-----------------------
[A]-----2-----------------------
[E]-----x-----------------------

2ND HALF - PLAY D CHORD HERE AS SHOWN IN CHORD LIST FOR 2ND HALF

D
Don't wanna hear you say
E A
Ain't nothin' but a heartache
D E A
Ain't nothin' but a mistake

(Don't wanna hear you say)
D E A F#m
I never wanna hear you say
E A
I want it that way


CHORUS #2 ONE-STEP HIGHER:
D
Tell me why
E A
(Ain't nothin' but a heartache)
D
Tell me why
E A D
(Ain't nothin' but a mistake tell me why)
E A
I never wanna hear you say

(Don't wanna hear you say)
Intro (Accoustic)

Gm D#m D#
1:---------------------
2:----3-----------6----
3:---3-3------8----7---
4:--5---5----8---8----- x3
5:-5-----5--6---8------
6:---------------------


Gm Em# A#m
1:---------8--13---------
2:----3----8--13---------
3:---3-3---10-15---------
4:--5---5--10-15---------
5:-5-----5-8--13---------
6:---------8--13---------


Chorus

D#m Em# G
1:--6--8--10--
2:--6--8--11--
3:--8--10-12-- x3
4:--8--10-12--
5:--6--8--10--
6:--6--8--10--


Chorus Ending

A# Em# G
1:--6--8--10--
2:--6--8--11--
3:--6--10-12--
4:--8--10-12--
5:--8--8--10--
6:--6--8--10--

Cause you are, my fire,
The one, desire,
Believe, when I say,
I want it that way

But we, are two worlds apart,
Can´t reach to your heart,
When you say,
That, I want it that way

Tell me why,
Ain´t nothin´ but a heartache,
Tell me why,
Ain´t nothin´ but a mistake,
Tell me why,
I never wanna hear you say,
I want it that way

Am I, your fire,
Your one, desire,
Yes I know, it´s too late,
But I want it that way

Tell me why,
Ain´t nothin´ but a heartache,
Tell me why,
Ain´t nothin´ but a mistake,
Tell me why,
I never wanna hear you say,
I want it that way

Now I can see that we´re falling apart,
>From the way that it used to be, Yeah,
No matter the distance,
I want you to know,
That deep down inside of me...

You are, my fire,
The one, desire,
You are
You are,
You are,
You are...

Don´t wanna hear you say,
Ain´t nothin´ but a heartache,
Ain´t nothin´ but a mistake,
(Don´t wanna hear you say),
I never wanna hear you say,
I want it that way

Tell me why,
Ain´t nothin´ but a heartache,
Tell me why,
Ain´t nothin´ but a mistake,
Tell me why,
I never wanna hear you say,
(Don´t wanna hear you say),
I want it that way

Tell me why...
Ain´t nothin´ but a heartache,
Ain´t nothin´ but a mistake,
Tell me why,
I never wanna hear you say,
(Don´t wanna hear you say it),
I want it that way
I want it that way


I Want It That Way (radio version)

I´m yours, completely,
I feel so deeply,
Your my first thought everyday,
And I want it that way

My life is for you,
And I, adore you,
I love you more, everyday,
And I want it that way

Your goodbyes,
Ain´t nothin´ but a heartache,
No more lies,
Ain´t nothin´ but a mistake,
That is why,
I love it when I hear you say,
I want it that way

My heart, is on fire,
Such a strong, desire,
Yes I know, it´s too late,
But I want it that way

No goodbyes,
Ain´t nothin´ but a heartache,
No more lies,
Ain´t nothin´ but a mistake,
That is why,
I love it when I hear you say,
I want it that way

I gave you my heart,
Baby right from the start,
And that´s the way it will always be, yeah
No matter the distance,
I want you to know,
That deep down inside of me...

You are, my fire,
The one, desire,
You are,
You are,
You are,
You are...

Don´t wanna hear you say,
Ain´t nothin´ but a heartache,
Ain´t nothin´ but a mistake,
I want to hear you say,
I love it when I hear you say,
You want it that way

Your goodbyes,
Ain´t nothin´ but a heartache,
No more lies,
Ain´t nothin´ but a mistake,
That is why,
I love it when I hear you say,
(I wanna hear you say)
I want it that way

Your goodbyes,
Ain´t nothin´ but a heartache,
Ain´t nothin´ but a mistake,
That is why,
I love it when I hear you say,
(Love it when you say)
I want it that way
Girl, I want it that way
Backstreet Boys- I want it that way (intro & verse)
by:junior daquiz

*intro*
E |-------------------------------0---------|
B |----2-----3/2---------3------------------|
G |------2-------2-----2-------2----2-------|
D |-----------------0-----------------------|
A |-------------------------0---------------|
E |--2--------------------------------------|

*1st verse*
E |-------------------------------0---------|
B |----2-----3/2---------3------------------|
G |------2-------2-----2-------2----2-------|
D |-----------------0-----------------------|
A |-------------------------0---------------|
E |--2--------------------------------------|

*chorus*
E |-----------------------------------------|
B |-----------------------------------------|
G |--77777777-6666-7777---------------------|
D |--77777777-6666-7777---------------------|
A |--55555555-6666-7777---------------------|
E |-----------4444-5555---------------------|

E |-----------------------------------------|
B |-----------------------------------------|
G |--77777777-6666-7777---------------------|
D |--77777777-6666-7777---------------------|
A |--55555555-6666-7777---------------------|
E |-----------4444-5555---------------------|

E |-----------------------------------------|
B |-----------------------------------------|
G |-----------4444-6666---------------------|
D |--44444444-4444-6666---------------------|
A |--44444444-2222-4444---------------------|
E |--22222222-------------------------------|

E |-----------------------------------------|
B |-----------------------------------------|
G |-----------4444-2222---------------------|
D |--44444444-4444-2222---------------------|
A |--44444444-2222-0000---------------------|
E |--22222222-------------------------------|

*second verse*
E |-------------------------------0---------|
B |----2-----3/2---------3------------------|
G |------2-------2-----2-------2----2-------|
D |-----------------0-----------------------|
A |-------------------------0---------------|
E |--2--------------------------------------|