Backstreet Boys — Larger Than Life

На этой странице Вы можете ознакомиться с 4 версиями подбора аккордов для гитары к песне "Larger Than Life" группы (исполнителя) "Backstreet Boys".

+Song:       Larger than Life
+Artist: Backstreet Boys
+Album: Millennium
+Tabbed By: Neal Conway - Damnsaxon@aol.com
+Member of the Bass Tab Archive Tabbing Army (www.basstabarchive.com)
----------------------------------------------

(after yell):

G-------------------------------------------------------------
D-------------------------------------------------------------
A-3--3--3-3--1-1-1--0-----0--0--0--1--1--1--3-----------------
E-------------------------------------------------------------

Verse:

G----------------------------------
D---------------------------------- 4 times
A---3--3--3-3--1-1-1--0------------
E----------------------------------

G----------------------------------
D----------------------------------
A--3--3--3--5--5--5--3--3--3--5----
E----------------------------------

Chorus:

G--------------------------
D-------------------------- 3 times
A---3--3--3-3--1-1-1--0----
E--------------------------

G--------------------------
D--------------------------
A-0--0--0--1--1--1--3------
E--------------------------

----------------------------------
this shouldnt be very hard to figure out. enjoy.
------------------------------------------------------------
this was a request, im not a BSB fan
----------------------------------
Backstreet boys-Larger than life
TabsMail-cifrastabs@zipmail.com.br
Backstreet_boys-Larger than life




E||------------------|----------------------|-------------------------|
B||------------------|----------------------|-------------------1-----|
G||------------------|----------------------|-------------------------|
D||------------------|------------1---------|--------1----------------|
A||------------------|--3----3-------3------|--1--3-----3----3-----3--|
E||------------------|----------------------|-------------------------|



----------------------|-------------------------|--------------------|
----------------------|-------------------1-----|--------------------|
----------------------|-------------------------|--------------------|
------------1---------|--------1----------------|--------------------|
--3----3-------3------|--1--3-----3----3-----3--|--3----3------------|
----------------------|-------------------------|--------------------|


------------------|--------------------------|------------------------|
------------------|--1--1-1-1--1--1----1--1--|------------------1--1--|
------------------|--------------------------|--3--3--3--2------------|
------------------|--------------------------|------------------------|
------------------|--------------------------|------------------------|
------------------|--------------------------|------------------------|


--------------------|-------------------|---------------------|
--------------------|-------------------|--1--1--1------------|
---3-0--------------|----------------0--|---------------------|
--------------------|-------------------|---------------------|
--------------------|-------------------|---------------------|
--------------------|-------------------|---------------------|


TabsMail...
http://tabsmail.8m.com
!Exclusive-TabsMail!
T1: Danny Spencer, DSpe528403@aol.com, Backstreet Boys, Larger than
Life, ?????????????

S2: This is a great dance song done by the most popular group in the
world. Have fun with it. Enjoy!!!!!!!!!!!!

S1:

intro
1--------------------
2-----4----------4--- (3 times)
3-5-5---5----3-5---5- then go to
4-------------------- the below part.
5--------------------
6--------------------

1--------------------
2-3---4-3------------
3---5-----5-3-5------
4--------------------
5--------------------
6--------------------




VERSE 1:
Cm Bb F Cm
I may run and hide when you're screaming my name alright
Cm Bb F Cm
But let me tell you now there are prices to fame alright
Ab Bb Ab Bb
Cause all of our time spent in flashes of light (To Chorus)


CHORUS:
Cm Bb F
All you people can't you see can't you see
Cm Bb F
How your love is affecting our reality
Cm Bb F
Every time we're down you can make it right
Ab Bb Cm
and that makes you larger than life


VERSE 2:
Cm Bb F Cm
Looking at the crowd and I see your body sway come on
Cm Bb F Cm
Wishing I could thank you in a different way come on
Ab Bb Ab Bb
all of your time spent keeps us alive (To Chorus)


BRIDGE:
Cm Gm(-G) Bb F
Ou-------Ou-------Ou-------Ou
Cm Gm(-G) Ab Bb
All of your time spent keeps us alive


Solo Chords:
Cm Bb F (3x) Ab Bb


*In the ending they fade out with the chorus doing there own singing
things.
Backstreet Boys
Larger Than Life

It's not all my work, I found the file on your page. It was written by Evgeny Naidenov.
But I found that it sounded strange, so not right and lacks some parts. So these are my
corrections, this is how the song sounds to me.

backstreet boys/larger than life.
|---------------|------------5----|-------------|-----------------5---|-------|-----------------|
|--------1------|------1----------|-------1-----|-------1-------------|--3--1--4--3--1------1---|
|-2--2-------2--|-0-2-----2-2---2-|-2--2-----2--|-0--2-----2--2-----2-|-------|----------3------|
|---------------|-----------------|-------------|---------------------|-------|-----------------|
|---------------|-----------------|-------------|---------------------|-------|-----------------|
|---------------|-----------------|-------------|---------------------|-------|-----------------|


verse:

|----------------------|--------|-------------------------|--------------------|
|--1---1---1---1---1---|--1--1--|-------------------1---1-|-1--4-1-------1-4-1-|
|----------------------|--------|--3---3---3----2---------|------------3-------|
|----------------------|--------|-------------------------|--------------------|
|----------------------|--------|-------------------------|--------------------|
|----------------------|--------|-------------------------|--------------------|
1. I may run and hide when u're sceamin' my name al-right
2. Look in at the crowd and I see your body sway come on

-----|---------------------------------|---------------------------------|--------------------|
-----|-1---1---1---1---1--(1)-1------1-|--------------------1------1-(4)-|-1--4-1-------1-4-1-|
-3---|---------------------------------|-3----3--3---2-------------------|------------3-------|
-----|---------------------------------|---------------------------------|--------------------|
-----|---------------------------------|---------------------------------|--------------------|
-----|---------------------------------|---------------------------------|--------------------|
but let me tell you now____ there are pric-es to fame__ al right
wish in I could thank you in a dif-fer ent way__ come on

|---------------------------------------------4--|-----------------------|--------------
|-----3---1--4-----3-----1-----------3---1-------|--3--4--3--4--3--4--1--|--------------
|-------------------------------4----------------|-----------------------|--------------
|------------------------------------------------|-----------------------|--------------
|------------------------------------------------|-----------------------|--------------
|------------------------------------------------|-----------------------|--------------
all of our time spent___ in flash-es__ of light....______________
cause all of your time spent___ keeps us__ a - live...._______________

|-----------0-------------------------------|---------------------|--------------|---------|
|--4---4---4---4---4----1--3----3----1---1--|--4---4-----4------4-|-4---4---4--1-|--3-1-1--|
|-------------------------------------------|---------------------|--------------|---------|
|-------------------------------------------|---------------------|--------------|---------|
|-------------------------------------------|---------------------|--------------|---------|
|-------------------------------------------|---------------------|--------------|---------|
all you peo-ple cant you see cant you see how your love's af-fect-ing our re - al-i-ty ?


|----------------------|----------------------------|---------------------------------------|
|-4--4---4----4-----4--|--3---3----3---1---1-----1--|-3----1-----4----3----1-------------1--|
|----------------------|----------------------------|------------------------------3--------|
|----------------------|----------------------------|---------------------------------------|
|----------------------|----------------------------|---------------------------------------|
|----------------------|----------------------------|---------------------------------------|
Ev-ry time we're down, you can make it right and that makes you larg - er___ than life



note: continue with the second verse and the chorus
to end the song,i hope you like the song.


Tommi Kahn