Backstreet Boys — Show Me The Meaning Of Being Lonely

На этой странице Вы можете ознакомиться с 7 версиями подбора аккордов для гитары к песне "Show Me The Meaning Of Being Lonely" группы (исполнителя) "Backstreet Boys".

-------------------------------------------------------------------------------
Show Me The Meaning Of Being Lonely - Backstreet Boys
-------------------------------------------------------------------------------
Tabbed by: IcyCinnamon
Email:luvingsistaz_garuboy@hotmail.com
Comments: This tab (like my other one) is meant to be played with the music. I hope that I did a good job!
(This tab was tabbed especially for Thanh, as a reminder for her
I'll always be there when she needs and she'll never be alone! aishiteru!)

e|----------------------------|
B|----------------------------|
G|----------------------------|
D|11-11-11-11-11--11-12-9-7-6-|
A|----------------------------|
E|----------------------------|

Verse 1
e|-----------------------------------------|
B|-----------------------------------------|
G|-----------------------------------------|
D|7-7-7-7--4-6-7--9-6--6/7-4-7--4-6-7--9-6-|
A|-----------------------------------------|
E|-----------------------------------------|

e|---------------------|
B|---------------------|
G|---------------------|
D|2-6--7-4--4--6-3-4-6-|
A|---------------------|
E|---------------------|

Verse 2
e|-------------------------------------|
B|-------------------------------------|
G|-------------------------------------|
D|7--4-7--4-7--9-6--7--4-7--4-6-7--9-6-|
A|-------------------------------------|
E|-------------------------------------|

e|----------------------|
B|----------------------|
G|----------------------|
D|2-6--7-4--4--6-3--4-6-|
A|----------------------|
E|----------------------|

Chorus 1
e|-------------------------------------------|
B|-------------------------------------------|
G|6-6-6-6-6--6-7-4-2-1--6-6-6-6-6--6-7-4-2-1-|
D|-------------------------------------------|
A|-------------------------------------------|
E|-------------------------------------------|

e|--------------------------------------------------|
B|--------------------------------------------------|
G|9-6-9--6-10--6-10--11-13-1311------7-7-7-2-2-1-4-|
D|--------------------------------------------------|
A|--------------------------------------------------|
E|--------------------------------------------------|

Verse 3
e|-----------------------------------------|
B|-----------------------------------------|
G|-----------------------------------------|
D|7-7-7-7--4-6-7--9-6--6/7-4-7--4-6-7--9-6-|
A|-----------------------------------------|
E|-----------------------------------------|

e|---------------------|
B|---------------------|
G|---------------------|
D|2-6--7-4--4--6-3-4-6-|
A|---------------------|
E|---------------------|

Verse 4
e|-------------------------------------|
B|-------------------------------------|
G|-------------------------------------|
D|7--4-7--4-7--9-6--7--4-7--4-6-7--9-6-|
A|-------------------------------------|
E|-------------------------------------|

e|------------------------|
B|------------------------|
G|--9-6-4--4--4-6--6-9-11-|
D|2-----------------------|
A|------------------------|
E|------------------------|

Chorus 2
e|-------------------------------------------|
B|-------------------------------------------|
G|6-6-6-6-6--6-7-4-2-1--6-6-6-6-6--6-7-4-2-1-|
D|-------------------------------------------|
A|-------------------------------------------|
E|-------------------------------------------|

e|------------------------------------------------------------|
B|------------------------------------------------------------|
G|9-6-9--6-10--6-10--11-13-1311------6-11-9-9-6-11-9------13-|
D|------------------------------------------------------------|
A|------------------------------------------------------------|
E|------------------------------------------------------------|

Verse 5
e|-------------------------------------------------|
B|-------------------------------------------------|
G|8--1-3-4-4--1-8-6--4-3-41--8--1-3-4-4--6--4-8-8-|
D|-------------------------------------------------|
A|-------------------------------------------------|
E|-------------------------------------------------|

e|-------------------------------|
B|-------------------------------|
G|4-4-4-4--4-4/6-3--8-11-11-8-13-|
D|-------------------------------|
A|-------------------------------|
E|-------------------------------|

e|---------------------------------------------------------------------------|
B|---------------------------------------------------------------------------|
G|---------------------------------------------------------------------------|
D|---------------------------------------------------------------------------|
A|---------------------------------------------------------------------------|
E|---------------------------------------------------------------------------|

Chorus 3
e|-------------------------------------------|
B|-------------------------------------------|
G|8-8-8-8-8--8-9-6-4-6--8-8-8-8-8--8-9-6-4-3-|
D|-------------------------------------------|
A|-------------------------------------------|
E|-------------------------------------------|

e|----------------------------------------------------|
B|----------------------------------------------------|
G|11-8-11--8-12--8-12--13-15-1513------9-9-9-4-4-3-6-|
D|----------------------------------------------------|
A|----------------------------------------------------|
E|----------------------------------------------------|

Chorus 4
e|-------------------------------------------|
B|-------------------------------------------|
G|8-8-8-8-8--8-9-6-4-6--8-8-8-8-8--8-9-6-4-3-|
D|-------------------------------------------|
A|-------------------------------------------|
E|-------------------------------------------|

e|---------------------------------------------------------|
B|---------------------------------------------------------|
G|11-8-11--8-12--8-12--13-15-1513------9-9-9-4-4-3------4-|
D|---------------------------------------------------------|
A|---------------------------------------------------------|
E|---------------------------------------------------------|



| / slide up
| slide down

===============================================================================
F#m                       D     E  
Show me the meaning of being lonely

F#m D E

F#m D E
1. So many words for the broken heart
F#m D E
It´s hard to see in a crimson love
D
So hard to breathe
Hm C#
Walk with me, and maybe
F#m D E
Nights of light so soon become
F#m D E
Wild and free I could feel the sun
D Hm C#
Your every wish will be done

They tell me...

F#m D E
CHORUS Show me the meaning of being lonely
F#m D E
Is this the feeling I need to walk with
A C# F#m
Tell me why I can´t be there where you are
D E
There´s something missing in my heart

2. Life goes on as it never ends
Eyes of stone observe the trends
They never say forever gaze
Guilty roads to an endless love (endless love)
There´s no control
Are you with me now
Your every wish will be done
They tell me

CHORUS Show me the meaning of being lonely
Is this the feeling I need to walk with
Tell me why I can´t be there where you are
D E G#m
There´s something missing in my heart

E
There´s nowhere to run
F# G#m
I have no place to go
E F# H
Surrender my heart´ body and soul
E Bbdim(?)
How can it be you´re asking me to feel
D# G#m E F#
the things you never show

G#m E F#

Interlude: G#m E F# G#m D#+

E F# H
You are missing in my heart
D# G#m
E F# G#m
Tell me why I can´t be there where you are

G#m E F#
CHORUS Show me the meaning of being lonely
G#m E F#
Is this the feeling I need to walk with
H D# G#m
Tell me why I can´t be there where you are
E F# G#m
There´s something missing in my heart
Backstreet Boys,Show me the meaning of being lonely.
Tabbed by Kang Ho, lkh83@yahoo.com.

this is my first one so.........

------------------------------8-6-----------9-8-6------------------------
6--8-9-------6--8-9-----------------------------------------------------
--------------------------------------------------------------------------------
--------------------------------------------------------------------------------
--------------------------------------------------------------------------------
--------------------------------------------------------------------------------
...........things you never show
-------------------------------------11-9-----------------------------------
9-11-12------9-11-12---------------12-11-9-------------------
---------------------------------------------------------------------------------
---------------------------------------------------------------------------------
---------------------------------------------------------------------------------
----------------------------------------------------------------------------------

-------------------11-9-------11-11-----------11-9--------------------
8-9-11-12------------12------------------------------12----------------
------------------------------------------------------------------------------------
-----------------------------------------------------------------------------------
----------------------------------------------------------------------------------
-----------------------------------------------------------------------------------

------------------------------------------------------------------------------------
12-11-9---------------------------------------------------------9-11-12-
--------------11-9-8-6-------------------6-8-9--9h11-----------------
------------------------------------------------------------------------------------
------------------------------------------------------------------------------------
------------------------------------------------------------------------------------

ne comments- lkh83@yahoo.com

:: Ultimate Guitar Archive ::
http://www.ultimate-guitar.com
Show Me The Meaning Of Being Lonely 
Backstreet Boys
>From the album Millennium (May 18th 1999)

Intro:
F#m D E
Show me the meaning of being lonely
F#m-D-E

Verse 1:
F#m D E
So many words for the broken heart
F#m D E
It's hard to see in a crimson love
E D C#
So hard to breathe Walk with me, and maybe
F#m D E
Nights of light so soon become
F#m D E
Wild and free I could feel the sun
E D C#
Your every wish will be done They tell me...

CHORUS:
F#m D E
Show me the meaning of being lonely
F#m D E
Is this the feeling I need to walk with
A C# F#m
Tell me why I can't be there where you are
D E
There's something missing in my heart

*F#m-D-E*

Verse 2: (chords: see verse 1)
Life goes on as it never ends
Eyes of stone observe the trends
They never say forever gaze
Guilty roads to an endless love
There's no control
Are you with me now
Your every wish will be done
They tell me

CHORUS
(same as before, except:)
D E G#m
There's something missing in my heart

Bridge:
G#m E
There's nowhere to run
F# G#m
I have no place to go
E F# B
Surrender my heart, body and soul
Eb
How can it be you're asking me to feel
G#m
the things you never show

E-F#m-G#m-E-F#m
(Ooooh....)

*G#m-E-F#-G#m-F#-E*

E F# B Eb G#m
You are missing in my heart
E F# G#m
Tell me why I can't be there where you are

CHORUS:
G#m E F#
Show me the meaning of being lonely
G#m E F#
Is this the feeling I need to walk with
B Eb G#m
Tell me why I can't be there where you are
E F# G#m
There's something missing in my heart

Well, there you go...have fun playing this amazing song. You may think it's an
hard song but it isn't really hard...try it and you'll see what I mean. If you
have comments, corrections or anything else, write to me:
bougen@interlinx.qc.ca
Intro:
E1-1-1-1-1----1-3-0--------0-1---0-1--3/5-3-1-0---
B-------------------3-2--3------3---------------3-
G-------------------------------------------------
D-------------------------------------------------
A-------------------------------------------------
E-------------------------------------------------

Sub:(Brian)
E1-1-1-1---0-1-3-0---1---1-----0-1-3-0----0-1------0------0---
B--------3-------------3-----3----------2-----3--3---2--3---3-
G-------------------------------------------------------------
D-------------------------------------------------------------
A-------------------------------------------------------------
E-------------------------------------------------------------

(AJ)
E0/1---1----1-3-0----1---1----0-1-3-0----0-1------0------0----
B----3----3------------3----3----------2-----3--3---2--3---3--
G-------------------------------------------------------------
D-------------------------------------------------------------
A-------------------------------------------------------------
E-------------------------------------------------------------


Chorus:
E1-1-1-1-1---1-3-0------1-1-1-1-1---1-3-0------3-0-3-0-4-0-5-6-7-6-5-
B------------------3-2--------------------3-2------------------------
G--------------------------------------------------------------------
D--------------------------------------------------------------------
A--------------------------------------------------------------------
E--------------------------------------------------------------------

E0-1-1-----------------0-1-----0-1-3/5-3-1-0-----
B------3-1-1-0-2/3---3-------3---------------3---
G------------------------------------------------
D------------------------------------------------
A------------------------------------------------
E------------------------------------------------

Sub:(Kevin)
E1---1----0-1-3-0----1---1----1-3-0----0-1-0-----0-1------0----
B--3----3--------------3---3--------2------3---2-----3--3---3--
G--------------------------------------------------------------
D--------------------------------------------------------------
A--------------------------------------------------------------
E--------------------------------------------------------------

(Nick)
E0/1---1----0-1-3-0----0/1-1---1----0-1-3-0----3-4-0-1/0----0-0-1/2---3--6/7-7/8--
B----3----3------------------3---3----------2------------3----3-------------------
G---------------------------------------------------------------------------------
D---------------------------------------------------------------------------------
A---------------------------------------------------------------------------------
E---------------------------------------------------------------------------------

Chorus:
E1-1-1-1-1---1-3-0------1-1-1-1-1---1-3-0------3-0-3-0-4-0-5-6-7-6-5-
B------------------3-2--------------------3-2------------------------
G--------------------------------------------------------------------
D--------------------------------------------------------------------
A--------------------------------------------------------------------
E--------------------------------------------------------------------

E1-3-3-1-0-0---3/2/3----
B------------3----------
G-----------------------
D-----------------------
A-----------------------
E-----------------------

(Howie D)
E0-------------0---------------0/1-----------0---1/2-2--
B--0-2-3-3---0---3--2-1-3/2/0------0-2-3-3-----3--------
G-------------------------------------------------------
D-------------------------------------------------------
A-------------------------------------------------------
E-------------------------------------------------------

E--------------0-----------------0---3/2/3--
B3-3-3-3---3-3---2---2-2---3-3-3---3--------
G-------------------------------------------
D-------------------------------------------
A-------------------------------------------
E-------------------------------------------

Solo:
E---0-1---0-1--3/5-3-1-0--------0-1-3/5-3-1-3/5-5---5-3-1-0----1-0---------
B-3------3----------------3---3------------------------------------3-2-0---
G------------------------------------------------------------------------3-
D--------------------------------------------------------------------------
A--------------------------------------------------------------------------
E--------------------------------------------------------------------------

E1-1-1--1-1-5-3-3-1-1----
B------------------------
G------------------------
D------------------------
A------------------------
E------------------------

Chorus:
E1-1-1-1-1---1-3-0------1-1-1-1-1---1-3-0------3-0-3-0-4-0-5-6-7-6-5-
B------------------3-2--------------------3-2------------------------
G--------------------------------------------------------------------
D--------------------------------------------------------------------
A--------------------------------------------------------------------
E--------------------------------------------------------------------

E--1-1---------------
B3-----3-1-1-0-2/3---
G--------------------
D--------------------
A--------------------
E--------------------
This is probably the closest version of this song's solo here.  
I sat listening to the song for hours, tabbing slowly, note by note.

e|-----------------11--9--------------------------12-12----------------------------------------|
B|-9-11-12--9-11-12--12-11-9---9-9-11-12--14-12-13------14-12-11--13-11-10---------------------|
G|-------------------------------------------------------------------------12-10-9-8-----------|
D|---------------------------------------------------------------------------------------------|
A|---------------------------------------------------------------------------------------------|
E|---------------------------------------------------------------------------------------------|

If anyone can get closer than this, fel free to let me in on it...
Submitted By: Stuart
EMail: Stuart_Pere28@hotmail.com
Backstreet Boys
Show me the meaning of being lonely


Here it is! This song works best if played on a classical
guitar. That's what I do!

There's just one simple pattern that's played in and after the
chorus:


--------------------------------------------------------------------------------
--------------------------------------------------------------------------------
--7--8--9---------7---------8---------9/----12--11-----12----11-----9
--------------------------------------------------------------------------------
--------------------------------------------------------------------------------
--------------------------------------------------------------------------------

You can repeat this throughout the whole song or just play it
when you hear it.

/-slide