Backyard Babies — Payback

На этой странице Вы можете ознакомиться с 2 версиями подбора аккордов для гитары к песне "Payback" группы (исполнителя) "Backyard Babies".

Band: Backyard Babies
Song: Payback - Making Enemies is Good
Instrument: Bass
Tabbed by: Uzi69

Verse1:
Gb|-----------------------------|
Db|-----------------------------|
Ab|-----------------------------|
Eb|-0-0-3-0-5-0-6-5-(x3)--3~-7~-|

Verse2:
Gb|-----------------------------|
Db|-----------------------------|
Ab|-----------------------------|
Eb|-0-0-3-0-5-0-6-5-(x4)--------|

Pre-Chorus:
Gb|---------------------------------|
Db|---------------------------------|
Ab|---------------------------------|
Eb|-7-7-7-7-6--7-7-7-7-6--7-7-7-7-6-|

Chorus:
Gb|----------------------------------------------------------------|
Db|----------------------------------------------------------------|
Ab|-7-7-7-7-7-7-7-7-10-10-10-10-10-10-10-10----------3-3-3-3-5-5-5-|
Eb|------------------------------------------3--7--0---------------|

Post-Chorus:
Gb|----------------------------------------|
Db|----------------------------------------|
Ab|----------------------------------------|
Eb|-0-3-5-6-5-3-0-(Pause)-0-3-5-6-5-3-0----|

Breakdown:
Gb|------------------------------------|
Db|------------------------------------|
Ab|-3~---5~----7-7-7-7-7-7-7-7---------|
Eb|------------------------------------|

Gb|--------------------------------------------|
Db|--------------------------------------------|
Ab|-3~---5~------------------------------------|
Eb|------------6-6-6-6-6-6-6-6-6-6-6-6-6-6-6-6-|

Extended Post-Chorus:
Gb|-----------------------------------------------------|
Db|-----------------------------------------------------|
Ab|-----------------------------------------------------|
Eb|-0-3-5-6-5-3-0-3-5-6-5-3-0-3-5-6-5-3-0-6-6-6-6-6-5-3-|

Solo:
Gb|---------------------------------------|
Db|---------------------------------------|
Ab|---------------------------------------|
Eb|-0-0-3-0-5-0-6-5--0-0-3-0-5-0-6-5------|

Gb|---------------------------------------|
Db|---------------------------------------|
Ab|-0-0-3-0-5-0-6-5--0-0-3-0-5-0-6-5------|
Eb|---------------------------------------|

Gb|---------------------------------------|
Db|---------------------------------------|
Ab|---------------------------------------|
Eb|-0-0-3-0-5-0-6-5--0-0-3-0-5-0-6-5------|

Order:
Verse 1 - x1
Verse 2 - x1
Pre-Chorus - x1
Chorus - x2
Post-Chorus - x1
Verse 1 - x1
Verse 2 - x1
Pre-Chorus - x1
Chorus - x2
Breakdown - x1
Post-Chorus - x1
Extended Post Chorus - x1
Solo - x1
Pre-Chorus - x1
Chorus - Play it til you Drop!


+---------------------------+
| Taken from Dreggy's |
| Backyard Babies Website |
|www.backyard-babies.cjb.net|
+---------------------------+
Payback Complete Score As Recorded By The Backyard Babies
Words And Music By The Backyard Babies Tuning Eb


First Verse
||---------------------------|--------------------------|
||---------------------------|--------------------------|
||*--------------------------|--------------------------|
||*--------------------------|--------------------------|
||---------------------------|--------------------------|
||---0--0--3--0--5--0--6--5--|--0--0--3--0--5--0--6--5--|


|----------------------------|-------------------------||
|----------------------------|-------------------------||
|----------------------------|-------------4----------*||
|----------------------------|--5----------4----------*||
|----------------------------|--5----------2-----------||
|---0--0--3--0--5--0--6--5---|--3----------------------||


Pre Chorus
|--------------------|--------------------|--------------------|
|--------------------|--------------------|--------------------|
|--------------------|--------------------|--------------------|
|--9--9--9--9--8--7--|--9--9--9--9--8--7--|--9--9--9--9--8--7--|
|--9--9--9--9--8--7--|--9--9--9--9--8--7--|--9--9--9--9--8--7--|
|--7--7--7--7--6--5--|--7--7--7--7--6--5--|--7--7--7--7--6--5--|


Chorus
||---------------------------|----------------------------|
||---------------------------|----------------------------|
||*--9--9--9--9--9--9--9--9--|----------------------------|
||*--9--9--9--9--9--9--9--9--|--5--5--5--4--4--4--4--4----|
||---7--7--7--7--7--7--7--7--|--5--5--5--5--5--5--5--5----|
||---------------------------|--3--3--3--2--2--2--2--2----|


|------------------------------|-------------------||
|------------------------------|-------------------||
|------4---4---5---5---5---5---|---7---7---7---7--*||
|--5---4---2---5---5---5---5---|---7---7---7---7--*||
|--5---2---2---3---3---3---3---|---5---5---5---5---||
|--3---------------------------|-------------------||

Drums
|----------------------|-------------|----------------------|
|----------------------|-------------|----------------------|
|----------------------|-------------|----------------------|
|----------------------|-------------|----------------------|
|--2--5--7--8--7--5--2-|-------------|--2--5--7--8--7--5--2-|
|--0--3--5--6--5--3--0-|-------------|--0--3--5--6--5--3--0-|


Second Verse
||---------------------------|--------------------------|
||---------------------------|--------------------------|
||*--------------------------|--------------------------|
||*--------------------------|--------------------------|
||---------------------------|--------------------------|
||---0--0--3--0--5--0--6--5--|--0--0--3--0--5--0--6--5--|


|----------------------------|-------------------------||
|----------------------------|-------------------------||
|----------------------------|-------------4----------*||
|----------------------------|--5----------4----------*||
|----------------------------|--5----------2-----------||
|---0--0--3--0--5--0--6--5---|--3----------------------||


Pre Chorus
|-------------------|-------------------|------------------|
|-------------------|-------------------|------------------|
|-------------------|-------------------|------------------|
|--9--9--9--9--8--7-|--9--9--9--9--8--7-|-9--9--9--9--8--7-|
|--9--9--9--9--8--7-|--9--9--9--9--8--7-|-9--9--9--9--8--7-|
|--7--7--7--7--6--5-|--7--7--7--7--6--5-|-7--7--7--7--6--5-|


Chorus Play Twice
||---------------------------|----------------------------|
||---------------------------|----------------------------|
||*--9--9--9--9--9--9--9--9--|----------------------------|
||*--9--9--9--9--9--9--9--9--|--5--5--5--4--4--4--4--4----|
||---7--7--7--7--7--7--7--7--|--5--5--5--5--5--5--5--5----|
||---------------------------|--3--3--3--2--2--2--2--2----|


|-----------------------|---------------||
|-----------------------|---------------||
|-----4--4--5--5--5--5--|--7--7--7--7--*||
|--5--4--2--5--5--5--5--|--7--7--7--7--*||
|--5--2--2--3--3--3--3--|--5--5--5--5---||
|--3--------------------|---------------||


Bridge
|----------|----------|--------------------|
|----------|----------|--------------------|
|-5--------|-7--------|-9-9-9-9-9-9-9-9-9--|
|-5--------|-7--------|-9-9-9-9-9-9-9-9-9--|
|-3--------|-5--------|-7-7-7-7-7-7-7-7-7--|
|----------|----------|--------------------|


|----------|----------|--------------------|
|----------|----------|--------------------|
|-5--------|-7--------|-4-4-4-4-4-4-4-4-4--|
|-5--------|-7--------|-4-4-4-4-4-4-4-4-4--|
|-3--------|-5--------|-2-2-2-2-2-2-2-2-2--|
|----------|----------|--------------------|


Solo
|----------------------|-------------|----------------------|-------------|
|----------------------|-------------|----------------------|-------------|
|----------------------|---x-x-x-----|----------------------|---x-x-x-----|
|----------------------|---x-x-x-----|----------------------|---x-x-x-----|
|--2--5--7--8--7--5--2-|---x-x-x-----|--2--5--7--8--7--5--2-|---x-x-x-----|
|--0--3--5--6--5--3--0-|-------------|--0--3--5--6--5--3--0-|-------------|


|----------------------|-------------|-----------|
|----------------------|-------------|-----------|
|----------------------|-------------|-----------|
|----------------------|-------------|-----------|
|--2--5--7--8--7--5--2-|-5-7-8-7-5-2-|-5-7-8-7-5-|
|--0--3--5--6--5--3--0-|-3-5-6-5-3-0-|-3-5-6-5-3-|


|---------------------------|--------------------------|
|---------------------------|--------------------------|
|---------------------------|--------------------------|
|---------------------------|--------------------------|
|---------------------------|--------------------------|
|---0--0--3--0--5--0--6--5--|--0--0--3--0--5--0--6--5--|


|---------------------------|--------------------------|
|---------------------------|--------------------------|
|---------------------------|--------------------------|
|---------------------------|--------------------------|
|---------------------------|--------------------------|
|---0--0--3--0--5--0--6--5--|--0--0--3--0--5--0--6--5--|


|--------------------|---------------------|
|--------------------|---------------------|
|--------------------|---------------------|
|--------------------|---------------------|
|---0--0--5--0--6--5-|-0--0--3--5--0--6--5-|
|--------------------|---------------------|


|---------------------------|--------------------------|
|---------------------------|--------------------------|
|---------------------------|--------------------------|
|---------------------------|--------------------------|
|---------------------------|--------------------------|
|---0--0--3--0--5--0--6--5--|--0--0--3--0--5--0--6--5--|


Pre Chorus
|-------------------|-------------------|------------------|
|-------------------|-------------------|------------------|
|-------------------|-------------------|------------------|
|--9--9--9--9--8--7-|--9--9--9--9--8--7-|-9--9--9--9--8--7-|
|--9--9--9--9--8--7-|--9--9--9--9--8--7-|-9--9--9--9--8--7-|
|--7--7--7--7--6--5-|--7--7--7--7--6--5-|-7--7--7--7--6--5-|


Chorus
||---------------------------|----------------------------|
||---------------------------|----------------------------|
||*--9--9--9--9--9--9--9--9--|----------------------------|
||*--9--9--9--9--9--9--9--9--|--5--5--5--4--4--4--4--4----|
||---7--7--7--7--7--7--7--7--|--5--5--5--5--5--5--5--5----|
||---------------------------|--3--3--3--2--2--2--2--2----|


|-----------------------|---------------||
|-----------------------|---------------||
|-----4--4--5--5--5--5--|--7--7--7--7--*||
|--5--4--2--5--5--5--5--|--7--7--7--7--*||
|--5--2--2--3--3--3--3--|--5--5--5--5---||
|--3--------------------|---------------||