Bad Brains — Attitude

На этой странице Вы можете ознакомиться с 2 версиями подбора аккордов для гитары к песне "Attitude" группы (исполнителя) "Bad Brains".

Artist:  Bad Brains
Song: Attitude
Tabbed by: Rick (rickrack97@hotmail.com)
AIM: rickrack97

Chords:

C5 (x355xx) D5 (x577xx)
A5 (577xxx) E5 (x799xx)
G5 (355xxx) F2 (x8-10-10xx)
F#5 (244xxx)
F5 (133xxx)


There are three parts to this song, you can figure out which one goes where.

Part 1:

E|--------------------------------------------|
B|--------------------------------------------|
G|-5-5-5-5-5-5--9-9-10-10-10-10-10-10-10-10---|
D|-5-5-5-5-5-5--9-9-10-10-10-10-10-10-10-10---|
A|-3-3-3-3-3-3--7-7--8--8--8--8--8--8--8--8---|
E|--------------------------------------------|

Part 2:

E|-----------------------------|
B|-----------------------------|
G|-5-5-5--7-7-7--5-5-5---------|
D|-5-5-5--7-7-7--5-5-5-7-7-7---|
A|-3-3-3--5-5-5--3-3-3-7-7-7---|
E|---------------------5-5-5---|

Part 3

E|-------------------|
B|-------------------|
G|-------------------|
D|--5-5-5-5--4-4--3--|
A|--5-5-5-5--4-4--3--|
E|--3-3-3-3--2-2--1--|

Here's the ending:

E|-----------------|
B|-----------------|
G|--5-7-9-10-9-7---|
D|--5-7-9-10-9-7---|
A|--3-5-7--8-7-5---|
E|-----------------|

That's all. The Bad Brains kick ass. Later.
verse

-------------------------------------
-------------------------------------
------------------------------------
---555555-------10--99999999--------
---333333-------8---77777777---------
-------------------------------------

chorus part 1

----------------------------------
----------------------------------
----------------------------------
---5---7---5---2--------------------
---3---5---3---0---------------------
---------------------------------

choruse part 2
--------------------------------
--------------------------------
--------------------------------
---555---444---333333------------
---333---222---111111-------------
---------------------------------