Bad Brains — Banned In Dc

На этой странице Вы можете ознакомиться с 3 версиями подбора аккордов для гитары к песне "Banned In Dc" группы (исполнителя) "Bad Brains".

Intro   x6
G|-----------------------------------------------------------------
D|-0-0-0-0-0-0-0-0-0-0-0-0-0-0-0-0---------------------------------
A|-----------------------------------------------------------------
E|-----------------------------------------------------------------

1st Verse
x5
G|-----------------------------------------------------------------
D|-----------------------------------------------------------------
A|-0-0-0-0-0-0-0-0-2-2-2-3-3-3-2-2-5-5-5-5-5-5-5-5-4h5-5-5-4h5-5-5-
E|-----------------------------------------------------------------

1st Chorus
x2
G|-----------------------------------------------------------------
D|-3-3-3-3-3-3-3-3-------------------------------------------------
A|-----------------3-3-3-3-4-4-4-4-5-5-5-5-5-5-5-5-4h5-5-5-5-5-5-5-
E|-----------------------------------------------------------------
x2
G|-----------------------------------------------------------------
D|-----------------------------------------------------------------
A|-4h5-5-5-5-5-5-5-4h5-5-5-5-5-5-5-4h5-5-5-5-5-5-5-----------------
E|-----------------------------------------------------------------

2nd Verse
x4
G|-----------------------------------------------------------------
D|-0-0-0-0-0-0-0-0-2-2-2-3-3-3-3-2-5-5-5-5-5-5-5-5-5-5-5-5-5-5-5-5-
A|-----------------------------------------------------------------
E|-----------------------------------------------------------------

2nd Chorus
x2
G|-3-3-3-3-3-3-3-3-2-2-2-2-----------------------------------------
D|-------------------------3-3-5-5---------------------------------
A|---------------------------------4h5-5-5-5-5-5-5-4h5-5-5-5-5-5-5-
E|-----------------------------------------------------------------
x1
G|-----------------------------------------------------------------
D|-----------------------------------------------------------------
A|-4h5-5-5-5-5-5-5-5-4h5-5-5-5-5-5-5--hold-a measure---------------
E|-----------------------------------------------------------------

Breakdown
x12
G|-----------------------------------------------------------------
D|-----------------------------------------------------------------
A|-1-1-1-1-1-1-1-1-0-0-0-0-3-3-3-3---------------------------------
E|---------------------------------3-3-3-3-3-3-3-3-3-3-3-3-3-3-3---
. . . . . . . . . . . . palm muted . . . . . . . . . . . . . . .

Outro
G|-----------------------------------------------------------------
D|-----------------------------------------------------------------
A|-----------------------------------------------------------------
E|-3h4---------3-------------3----------------3--------------------
. . . . let notes ring . . . . . . . . . . . . . . . . . . . . .

Good luck.. email me with any comments.. suggestions.. whatever
- puppydawg246@hotmail.com
Bad Brains
Banned in DC
tabbed by Punkatronicus

standard tuning
*the spacing is a bit out of whack, but other than that, this tab should be correct.

G:|-------------------------------------------------|
D:|-------------------------------------------------|
A:|---7-7-7-7-7--7----------------------------------|
E:|-----------------0>------------------------------|

G:|---------------------------------1--------|
D:|----------------------2-2-2-2-2----2-2-2--| x4
A:|--2-2-2-2-2--4-5-4-5----------------------| /
E:|------------------------------------------|/

G:|--------------------------------------------------------------------------|
D:|----------------------------6---------------------------------------------|
A:|----------5-5-6-7-7-7-7-7-----7-7-7-7-7--5-5-5-5-5--5-5-5-5-5-6-7-7-7-7-7-|
E:|3-3-3-3-3-----------------------------------------------------------------|

G:|-------------|
D:|-------------| x7
A:|-p6-7-7-7-7--| /
E:|-------------|/

G:|------------------------------6-----------------------------------6--------|
D:|-----------4-4-5-5-7-7-7-7-7---7-7-7-----------4-4-5-5-7-7-7-7-7---7-7-7---| x2
A:|7-7-7-7-7---------------------------7-7-7-7-7------------------------------| /
E:|---------------------------------------------------------------------------|/

G:|--5-5-5-5-5-4-----------------------------|
D:|----------------5-7-----------------------|
A:|--------------------7p6-7-7-7-7p6-7-7-7---| /x2
E:|------------------------------------------|/

G:|---------------------------------------------------------| |--------------------|
D:|---------------------------------------------------------| |--------------------|
A:|--3-3-3-3-3-3-3-3-2-2-2-2-5-5-5-5-0-0-0-0-0-0-0-0-0-0----| |--------------------|
E:|---------------------------------------------------------| |-0-0-2-2-3-3--------|

G:|----------------------------------------------------------------|
D:|----------------------------------------------------------------| 7
A:|--3-3-3-3-3-3-3-3-2-2-2-2-5-5-5-5-0-0-0-0-0-0-0-0-0-0-0-0-0-0---| /
E:|----------------------------------------------------------------|/

G:|---------------------------------------------------------| |--------------------|
D:|---------------------------------------------------------| |--7-7-5-5-----------|
A:|--3-3-3-3-3-3-3-3-2-2-2-2-5-5-5-5-0-0-0-0-0-0-0-0-0-0----| |----------5-5-4-3---|
E:|---------------------------------------------------------| |--------------------|

G:|---------------------------------------------------------| |--------------------|
D:|---------------------------------------------------------| |--------------------|
A:|--3-3-3-3-3-3-3-3-2-2-2-2-5-5-5-5-0-0-0-0-0-0-0-0-0-0----| |--------------------|
E:|---------------------------------------------------------| |-0-0-2-2-3-3--------|

G:|----------------------------------------------------------------|
D:|----------------------------------------------------------------| 4
A:|--3-3-3-3-3-3-3-3-2-2-2-2-5-5-5-5-0-0-0-0-0-0-0-0-0-0-0-0-0-0---| /
E:|----------------------------------------------------------------|/
Bad Brains - Banned In Dc, аккорды

Bad Brains
Banned in DC
tabbed by Punkatronicus

standard tuning
*the spacing is a bit out of whack, but other than that, this tab should be correct.

G:|---------------------------------------------------|
D:|---------------------------------------------------|
A:|---7-7-7-7-7--7---------------------------------|
E:|---------------------0-----------------------------|

G:|--------------------------------------1--------|
D:|--------------------------2-2-2-2-2----2-2-2--| x4
A:|--2-2-2-2-2--4-5-4-5----------------------| /
E:|----------------------------------------------|/

G:|-------------------------------------------------------------------------------------------|
D:|---------------------------------6--------------------------------------------------------|
A:|------------5-5-6-7-7-7-7-7-----7-7-7-7-7--5-5-5-5-5--5-5-5-5-5-6-7-7-7-7-7-|
E:|3-3-3-3-3--------------------------------------------------------------------------------|

G:|----------------|
D:|----------------| x7
A:|-p6-7-7-7-7--| /
E:|----------------|/

G:|-----------------------------------6------------------------------------------6--------|
D:|-------------4-4-5-5-7-7-7-7-7---7-7-7------------4-4-5-5-7-7-7-7-7---7-7-7---| x2
A:|7-7-7-7-7--------------------------------7-7-7-7-7------------------------------| /
E:|--------------------------------------------------------------------------------------|/

G:|--5-5-5-5-5-4-----------------------------|
D:|-----------------5-7-----------------------|
A:|----------------------7p6-7-7-7-7p6-7-7-7---| /x2
E:|--------------------------------------------------|/

G:|---------------------------------------------------------| |--------------------|
D:|---------------------------------------------------------| |--------------------|
A:|--3-3-3-3-3-3-3-3-2-2-2-2-5-5-5-5-0-0-0-0-0-0-0-0-0-0----| |--------------------|
E:|---------------------------------------------------------| |-0-0-2-2-3-3--------|

G:|------------------------------------------------------------------------------|
D:|-------------------------------------------------------------------------------|
A:|--3-3-3-3-3-3-3-3-2-2-2-2-5-5-5-5-0-0-0-0-0-0-0-0-0-0-0-0-0-0---|
E:|-------------------------------------------------------------------------------|

G:|---------------------------------------------------------| |--------------------|
D:|----------------------------------------------------------------| | --7-7-5-5-----------|
A:|--3-3-3-3-3-3-3-3-2-2-2-2-5-5-5-5-0-0-0-0-0-0-0-0-0-0----| |----------5-5-4-3---|
E:|-------------------------------------------------------------------| |--------------------|

G:|---------------------------------------------------------| |--------------------|
D:|---------------------------------------------------------| |--------------------|
A:|--3-3-3-3-3-3-3-3-2-2-2-2-5-5-5-5-0-0-0-0-0-0-0-0-0-0----| |--------------------|
E:|---------------------------------------------------------| |-0-0-2-2-3-3--------|

G:|-------------------------------------------------------------------------------|
D:|-------------------------------------------------------------------------------| 4
A:|--3-3-3-3-3-3-3-3-2-2-2-2-5-5-5-5-0-0-0-0-0-0-0-0-0-0-0-0-0-0---| /
E:|-------------------------------------------------------------------------------|/