Bad Brains — Right Brigade

На этой странице Вы можете ознакомиться с 3 версиями подбора аккордов для гитары к песне "Right Brigade" группы (исполнителя) "Bad Brains".

Right Brigade
Bad Brains
Tab by James Copley (jcopley18@hotmail.com)
standrard tuning

Riff 1
G|-------------------------------------|
D|-------------------------------------|
A|-3-3-3-33-6-6-6-66-------------------|
E|-------------------3-3-3-33-3-3-3-33-|

Riff 2 here r the notes,I'm 2 lazy to count them,just play along
G|-------|
D|-------|
A|-3---2-|
E|---2---|

Riff 3 just the notes again
G|-------|
D|-2-----|
A|---3-2-|
E|-------|

Riff 4
G|----------------------------------------|
D|----------------------------------------|
A|----------------------------------------|
E|-2222222222222222-444-555-444-555-44-55-|
-------------------------------------------------------------------------------
SONG NAME - Band Name
-------------------------------------------------------------------------------
Tabbed by: Animeguy
Email:

Tuning: normal tuning

intro:

e|--------------------------------------------------------------------------|
B|--------------------------------------------------------------------------|
G|--------------------------------------------------------------------------|
D|--------------------------------------------------------------------------|
A|--------------------------------------------------------------------------|
E|-(7)-9-9-9-9-(9)-12-12-12-12-(12)-5-5-5-5-5-5-5-5-------------------------|
repeat 1 more time

riff 1

e|--------------------------------------------------------------------------|
B|--------------------------------------------------------------------------|
G|--------------------------------------------------------------------------|
D|--------------------------------------------------------------------------|
A|-11-5-10-10-10-11-5-10-10-10----------------------------------------------|
E|-9--3-8-(8)-(8)-9-3-8-(8)-(8)---------------------------------------------|
repeat two more times with slight muting and more strums

riff 2

e|--------------------------------------------------------------------------|
B|--------------------------------------------------------------------------|
G|--------------------------------------------------------------------------|
D|--------------------------------------------------------------------------|
A|-15-15-15-15-15-11-10(Xon10)(Xon10)(Xon10)(Xon10)-------------------------|
E|-13-13-13-13-13-9--8-(Xon8)-(Xon8)-(Xon8)-(Xon8)--------------------------|

repeat once more,
then repeat riff 1 with slight muting and more strums,
then play riff 2 twice.

riff 3 part 1

Heavy Muting

e|--------------------------------------------------------------------------|
B|--------------------------------------------------------------------------|
G|--------------------------------------------------------------------------|
D|--------------------------------------------------------------------------|
A|-5-5-5-5-5-5-5-5-5-5-5-5-5-5-5-5------------------------------------------|
E|-3-3-3-3-3-3-3-3-3-3-3-3-3-3-3-3------------------------------------------|

riff 3

e|--------------------------------------------------------------------------|
B|--------------------------------------------------------------------------|
G|--------------------------------------------------------------------------|
D|--------------------------------------------------------------------------|
A|-7-7-7-8-8-8-7-7-7-8-8-8-7-3-5-5-5-5-5-5-5-5------------------------------|
E|-5-5-5-6-6-6-5-5-5-6-6-6-5-1-3-3-3-3-3-3-3-3------------------------------|

repeat 8 more times, then play riff 4 once.

riff 4

e|--------------------------------------------------------------------------|
B|--------------------------------------------------------------------------|
G|--------------------------------------------------------------------------|
D|--------------------------------------------------------------------------|
A|-7-7-7-8-8-8-7-7-7-8-8-8-8-8----------------------------------------------|
E|-5-5-5-6-6-6-5-5-5-6-6-6-6-6----------------------------------------------|

Solo:
I havent figured this one out

| / slide up
| slide down
| h hammer-on
| p pull-off
| ~ vibrato
| + harmonic
| x Mute note
=============================================================================
Intro:

C5 D#5 G5
-|----------------------------------|-----------------------------------|
-|----------------------------------|-----------------------------------|
-|--5--5-5--5--5-5--8--8-8--8--8-8--|-----------------------------------|
-|--5--5-5--5--5-5--8--8-8--8--8-8--|--5--5-5--5--5-5--5--5-5--5--5-5---|
-|--3--3-3--3--3-3--6--6-6--6--6-6--|--5--5-5--5--5-5--5--5-5--5--5-5---|
-|----------------------------------|--3--3-3--3--3-3--3--3-3--3--3-3---|

Verse: You can´t disappear anymore...

C5 F#5 B5
-|----------------------------|-----------------------------|
-|----------------------------|-----------------------------|
-|--5--5-5--5-5---------------|--4--4-4--4-4--4--4-4--4-4---|
-|--5--5-5--5-5--4--4-4--4-4--|--4--4-4--4-4--4--4-4--4-4---|
-|--3--3-3--3-3--4--4-4--4-4--|--2--2-2--2-2--2--2-2--2-2---|
-|---------------2--2-2--2-2--|-----------------------------|

Chorus: But the funny thing about you is...

E5 C5 B5 B5
-|--------------------------|----------------------------|
-|--------------------------|----------------------------|
-|--9--9-9--9-9--9--5-5--4--|--4--4-4-4-4--4--4-4--4-4---|
-|--9--9-9--9-9--9--5-5--4--|--4--4-4-4-4--4--4-4--4-4---|
-|--7--7-7--7-7--7--3-3--2--|--2--2-2-2-2--2--2-2--2-2---|
-|--------------------------|----------------------------|

Outro:

F#5 G#5 A5 G#5 A5 G#5 A5 F#5
|-----------------------------------|----------------------------------------|
|-----------------------------------|----------------------------------------|
|-----------------------------------|----------------------------------------|
|--4-4-4-4-4-4-4-4-6-6-6-6-7-7-7-7--|--6-6-6-6-7-7-7-7-6-6-7-7-4-4-4-4-4-4-4-|
|--4-4-4-4-4-4-4-4-6-6-6-6-7-7-7-7--|--6-6-6-6-7-7-7-7-6-6-7-7-4-4-4-4-4-4-4-|
|--2-2-2-2-2-2-2-2-4-4-4-4-5-5-5-5--|--4-4-4-4-5-5-5-5-4-4-5-5-2-2-2-2-2-2-2-|