Bad Brains — Sailin On

На этой странице Вы можете ознакомиться с 2 версиями подбора аккордов для гитары к песне "Sailin On" группы (исполнителя) "Bad Brains".

-------------------------------------------------------------------------------
Sailin' On - Bad Brains
-------------------------------------------------------------------------------
Tabbed by: Animeguy
Email:

Tuning: Normal Tuning

riff 1

e|---------------------------------------------------------------------------|
B|---------------------------------------------------------------------------|
G|---------------------------------------------------------------------------|
D|---------------------------------------------------------------------------|
A|-15-15-15-15-15-15-15-15-12-11-12-10---------------------------------------|
E|-13-13-13-13-13-13-13-13-10-9--10--9---------------------------------------|

repeat 3 more times

riff 2

e|---------------------------------------------------------------------------|
B|---------------------------------------------------------------------------|
G|---------------------------------------------------------------------------|
D|---------------------------------------------------------------------------|
A|-5-5-5-5-5-5-5-5-13-13-13-13-13-15-----------------------------------------|
E|-3-3-3-3-3-3-3-3-11-11-11-11-11-13-----------------------------------------|

repeat 3 more times
then play riff 1 four times
then play riff 2 four times

riff 3

e|---------------------------------------------------------------------------|
B|---------------------------------------------------------------------------|
G|---------------------------------------------------------------------------|
D|---------------------------------------------------------------------------|
A|-6-6/7-6-6/7-6/7-6/7-6/7---------------------------------------------------|
E|-4-4/5-4-4/5-4/5-4/5-4/5---------------------------------------------------|

play riff 1 four times during guitar solo

then play riff 2 four times

finish with riff one four times, then four more times while muted


| / slide up
| slide down
| h hammer-on
| p pull-off
| ~ vibrato
| + harmonic
| x Mute note
===============================================================================
-------------------------------------------------------------------------------
SONG NAME - Band Name
-------------------------------------------------------------------------------
Tabbed by: Animeguy
Email:

Tuning: Normal Tuning

riff 1

e|---------------------------------------------------------------------------|
B|---------------------------------------------------------------------------|
G|---------------------------------------------------------------------------|
D|---------------------------------------------------------------------------|
A|---------------------------------------------------------------------------|
E|-13-13-13-13-13-13-13-13-10-9-10-9-----------------------------------------|

repeat 3 more times

riff 2

e|---------------------------------------------------------------------------|
B|---------------------------------------------------------------------------|
G|---------------------------------------------------------------------------|
D|---------------------------------------------------------------------------|
A|---------------------------------------------------------------------------|
E|-3-3-3-3-3-3-3-3-11-11-11-11-11-13-----------------------------------------|

repeat 3 more times
then play riff 1 four times
then play riff 2 four times

riff 3

e|---------------------------------------------------------------------------|
B|---------------------------------------------------------------------------|
G|---------------------------------------------------------------------------|
D|---------------------------------------------------------------------------|
A|---------------------------------------------------------------------------|
E|-4-4/5-4-4/5-4/5-4/5-4/5---------------------------------------------------|

play riff 1 four times during guitar solo

then play riff 2 four times

finish with riff one four times, then four more times while muted


| / slide up
| slide down
| h hammer-on
| p pull-off
| ~ vibrato
| + harmonic
| x Mute note
===============================================================================