Bad Brains — Soul Craft

Artist: Bad Brains
Song: Soul Craft
Album: Quickness (1989)
Tuning: E-A-D-G
Notes:

- Slide Down
~ - Let Ring


Verse 1:
G|------------------------------------------------------|
D|------------------------------------------------------|
A|------------------------------------------------------|
E|--52--2--2-2-2---53--5-4-5--5-4-4-7--7-6-7-8-7-85--| (x4)


Chorus:
G|----------------------------------------------|
D|----------------------------------------------|
A|--3--2--5~-----3--2--4~-----3--2--5~-----3-3--|
E|----------------------------------------------|


Verse 2:
G|------------------------------------------------------|
D|------------------------------------------------------|
A|------------------------------------------------------|
E|--52--2--2-2-2---53--5-4-5--5-4-4-7--7-6-7-8-7-85--| (x4)


Chorus:
G|----------------------------------------------|
D|----------------------------------------------|
A|--3--2--5~-----3--2--4~-----3--2--5~-----3-3--|
E|----------------------------------------------|


Guitar Solo:
G|------------------------------------------------------|
D|------------------------------------------------------|
A|------------------------------------------------------|
E|--52--2--2-2-2---53--5-4-5--5-4-4-7--7-6-7-8-7-85--| (x4)


Chorus:
G|----------------------------------------------|
D|----------------------------------------------|
A|--3--2--5~-----3--2--4~-----3--2--5~-----3-3--|
E|----------------------------------------------|


Verse 3:
G|------------------------------------------------------|
D|------------------------------------------------------|
A|------------------------------------------------------|
E|--52--2--2-2-2---53--5-4-5--5-4-4-7--7-6-7-8-7-85--| (x8)


Outro:
G|-----------------|
D|-----------------|
A|--3--2--5~---0-0-|
E|-----------------|