Bad Brains — Stay Close To Me

Band:Bad Brains
Song: Stay Close to Me

tabbed by jam9383@yahoo.com

Intro

e--------------------------------------------------------------------------|
B--------------------------------------------------------------------------|
G--------------10--------9-------------------------------------------------|
D----7---------10--------9-------------------------------------------------|
A----7---------8---------7-------------------------------------------------|
E----5---------------------------------------------------------------------|

Verse

e---5--5--x--5------------------5--5--x--5----------------------------|
B---5--5--x--5-----9--9--x--9---7--7--x--7-------5--------------------|
G---6--6--x--6-----8--8--x--8---7--7--x--7-------7--9-----------------|
D---7--7--x--7-----6--6--x--6---7--7--x--7----9--9--7-----------------|
A---------------------------------------------7-----------------------|
E---------------------------------------------------------------------|

Chorus

e---------------------------------------------------------------------|
B---------------------------------------------------------------------|
G-----------------------------4-4-4-4---------------------------------|
D--4--4-----4--4-----4--4-----4-4-4-4---------------------------------|
A--4--4-----4--4-----4--4-----2-2-2-2---------------------------------|
E--2--2-----2--2-----2--2---------------------------------------------|

If any corrections are needed contact me