Bad Cash Quartet — Searching Is Killing Me

Searching is killing me- Bad cash quartet
Album- Midnight prayer
Tabbed by: Per Тцrnкrаnтz

Intro:
Bb

Verse:
Bb F Gm
Back to my school yard and back too were we began.
Eb F Eb Gm F Bb
I know you thought you won, but we knew we were right and you were wrong.
Bb F Gm
Dreaming of something far away from home.
Eb F Eb Gm F
Cause you have seen the world from postcards on the wall in your room.
Bb F Gm
This feeling never leaves me yeah Iґve been wathing you.
Eb F Eb Gm F
So if you ask me if you care no I wont lay on your grave yard.

Chorus:
C# G#
Sometimes shutting you out and sometimes Iґm giving you all.
Ebm C# G#
No I donґt know where to go cause everyone is alone.
C# G#
Sometimes shutting you out and sometimes Iґm giving you all.
Ebm C# G#
No I donґt know where to go cause everyone I see is alone.

Solo:
e---------------------------------------------------------
B--6---7-9-11-9-6--7-9-11-9-6--7-6---6-7-6----------------
G----6-----------------------------8----------------------
D---------------------------------------------------------

e---------------------------------------------------------
B--6---7-9-11-9-6--7-9-11-9-6--7-6---6-7-6----------------
G----6-----------------------------8-------6--------------
D---------------------------------------------------------

Verse: (Bb F Gm Eb F Eb Gm F...)
Always something missing and searching is killing me.
Iґm always chasing shadows, so donґt you ever count on me.
There are always something missing and searching is killing me.
Iґm always chasing shadows, so donґt you ever count on me.

Chorus:
C# G#
Sometimes shutting you out and sometimes Iґm giving you all.
Ebm C# G#
No I donґt know where to go cause everyone is alone.
C# G#
Sometimes shutting you out and sometimes Iґm giving you all.
Ebm C# G#
No I donґt know where to go cause everyone I see is alone.

End with the solo...