Bad News — Bad News

BAD NEWS - BAD NEWS
From the Album BAD NEWS
Copyright 1987 EMI RECORDS
Version 1.0 - (Jan - 2002)

Transcribed by: Rene C

For Questions, Comments, Newest Version, or Corrections contact
Rene C: at panzerkill@yahoo.dk

Check Out Death Warp, With More Transcriptions On It:
http://www.wam.umd.edu/~ekubica

.. - palm mute / - slide up to
- slide down to ~ - vibrato
h - hammer on b - bend
p - pull off Suffixes for bend
ph - pinch harmonic
f - full bend h - half bend
* - see comment r - release t - tap bend
X - percussion mute ~ - vibrato bend
@ - slight palm mute () - ghost note, sustained note

Tune Gtr to E


Riff A
|----------------------------------------------------|
|----------------------------------------------------|
|--2--------------7----------------------------------|Gtr
|--2--2-2-2-2--5--7--3-times---9-9-9-9-9-9-----------| I
|--0--0-0-0-0--5--5------------7-7-7-7-7-7-----------|
|--------------3-------------------------------------|
| |
|----------------------------------------------------|
|----------------------------------------------------|
|--------------12-7------------9-9-9-9-9-9-----------|Gtr
|--7-----------12-7--3-times---7-7-7-7-7-7-----------| II
|--7--7-7-7-7--10-5----------------------------------|
|--5--5-5-5-5----------------------------------------|

Riff B
|--------------------------|
|--------------------------|
|--9--9--------------------|Gtr
|--9--9--------------------| I
|--7--7--7-5---------------|
|------------7-6-5-3-0-----|
| |
|--------------------------|
|--------------------------|
|--9--9--9-7---------------|Gtr
|--9--9------9-8-7-5-------| II
|--7--7--------------7-----|
|--------------------------|

Riff C
|--------------------|
|--------------------|
|--5--4--2--7--9-----|
|--5--4--2--7--9-----|
|--3--2--0--5--7-----|
|--------------------|