Bad News — Drink Till I Die

BAD NEWS - DRINK TILL I DIE
From the Album BAD NEWS
Copyright 1987 EMI
Version 1.0 - (JAN. 2001)

Transcribed by: REAPER

For Questions, Comments, Newest Version, or Corrections contact
(YOUR NAME): at (YOUR E-MAIL ADDRESS)

Check Out Death Warp, With More Transcriptions On It:
http://www.wam.umd.edu/~ekubica

.. - palm mute / - slide up to
- slide down to ~ - vibrato
h - hammer on b - bend
p - pull off Suffixes for bend
ph - pinch harmonic
f - full bend h - half bend
* - see comment r - release t - tap bend
X - percussion mute ~ - vibrato bend
@ - slight palm mute () - ghost note, sustained note

Tune Gtr to E



Riff A
|--------------------------------------------------------------------|
|--------------------------------------------------------------------|
|--------------------------------------------------------------------|Gtr
|-9------------9------------9--------------9-------------------------| I
|-7------------7------------7--------------7-------------------------|
|-0------------0------------0--------------0-------------------------|
| |
|--------------------------------------------------------------------|
|--------------------------------------------------------------------|
|-------------------------------12---14--------12---14---------------|Gtr
|-------------------------------12---14--------12---14---------------| II
|-------------------------------10---12--------10---12---------------|
|--------------------------------------------------------------------|

Riff B
|-------------------------------------------------|
|-------------------------------------------------|
|-------------------------------------------------|
|------------12---14--------------12---14---------|
|-7-7-7-7----10---12---7-7-7-7----10---12---------|
|-0-0-0-0--------------0-0-0-0--------------------|

Riff C
|----------------------------|
|----------------------------|
|---5---5-------------7------|
|---5---5------5------7------|
|---3---3------5------5------|
|--------------3-------------|

Riff D
|-----------------------------------|
|-----------------------------------|
|-----------------------------------|
|-----------------------------------|
|---7-7-7-5-------------------------|
|-----------7--7-5-3---3--5--0------|
Riff E
|-------------------------------------|
|-------------------------------------|
|-------------------------------------|
|-7-7-7-7-7-7-7-7--9-9-9-9-9-9-9-9----|
|-5-5-5-5-5-5-5-5--7-7-7-7-7-7-7-7----|
|-------------------------------------|
Riff F
|------------------------------------------------|
|------------------------------------------------|
|-----------------------------9b-9b 9b 9b--------|
|------------------------------------------------|
|------------------------------------------------|
|-7--5--3--0--------3---5---0--------------------|