Bad News — Hey Hey Bad News

BAD NEWS - HEY HEY BAD NEWS
From the Album BAD NEWS
Copyright 1987 EMI RECORDS
Version 1.0 - (JAN - 2002)

Transcribed by: RENE C

For Questions, Comments, Newest Version, or Corrections contact
(YOUR NAME): at (YOUR E-MAIL ADDRESS)

Check Out Death Warp, With More Transcriptions On It:
http://www.wam.umd.edu/~ekubica

.. - palm mute / - slide up to
- slide down to ~ - vibrato
h - hammer on b - bend
p - pull off Suffixes for bend
ph - pinch harmonic
f - full bend h - half bend
* - see comment r - release t - tap bend
X - percussion mute ~ - vibrato bend
@ - slight palm mute () - ghost note, sustained note

Tune Gtr to E


Riff A
|----------------------------------------------|
|----------------------------------------------|
|--2----------------2---------------2----------|
|--2-----2----2-----2-----2-4-2-----2----------|
|--0--3h4--3h4--3h4-0--3h4------3h4-0----------|
|----------------------------------------------|

Riff B
|------------|
|------------|
|--5--4--2---|
|--5--4--2---|
|--3--2--0---|
|------------|

Riff C.1
|------------------------|
|------------------------|
|------------------------|
|--2---4---5---4---2-----|
|--0-0-0-0-0-0-0-0-0-----|
|------------------------|

Riff C.2
|------------------------|
|------------------------|
|--2---4---5---4---2-----|
|--0-0-0-0-0-0-0-0-0-----|
|------------------------|
|------------------------|

Riff C.3
|------------------------|
|------------------------|
|------------------------|
|------------------------|
|--2---4---5---4---2-----|
|--0-0-0-0-0-0-0-0-0-----|

Riff D
|------------------------------------------|
|------------------------------------------|
|------------------------------------------|
|--9-9-9-9-9-9-9-9-9--7-7-7-7-7-7-7-7-7----|
|--7-7-7-7-7-7-7-7-7--5-5-5-5-5-5-5-5-5----|
|------------------------------------------|

Riff E
|-----------------------|
|-----------------------|
|-----------------------|
|--7--7-7-7----5--4-----|
|--7--7-7-7----5--4-----|
|--5--5-5-5----3--2-----|

Riff F
|-----------------------|
|-----------------------|
|-----------------------|
|--5--4--5--4--5--4-----|
|--5--4--5--4--5--4-----|
|--3--2--3--2--3--2-----|