Bad News — Masturbike

BAD NEWS - MASTURBIKE
From the Album BAD NEWS
Copyright 1987 EMI
Version 1.0 - (JAN. - 2001)

Transcribed by: REAPER

For Questions, Comments, Newest Version, or Corrections contact
(YOUR NAME): at (YOUR E-MAIL ADDRESS)

Check Out Death Warp, With More Transcriptions On It:
http://www.wam.umd.edu/~ekubica

.. - palm mute / - slide up to
- slide down to ~ - vibrato
h - hammer on b - bend
p - pull off Suffixes for bend
ph - pinch harmonic
f - full bend h - half bend
* - see comment r - release t - tap bend
X - percussion mute ~ - vibrato bend
@ - slight palm mute () - ghost note, sustained note

Tune Gtr to E


Riff A
|----------------------------------------------------------|
|----------------------------------------------------------|
|---------------------------------------------7----5-------|
|---------------------------------------------7----5-------|
|7-7-7--10-9--5---7-7-7--10-9--5---END WITH---5----3-------|
|5-5-5--8--7--3---5-5-5--8--7--3---------------------------|

Riff B
|---------------------------|
|---------------------------|
|---------------------------|
|---------------------------|
|-7-7-7-7-7-7-7-7-7---------|
|-0-0-0-0-0-0-0-0-0---------|

Riff C
|--------------------------------------------------------------------|
|--------------------------------------------------------------------|
|---------------------------------------------9----7----5------------|
|9-9-9--12--11-7---9-9-9--12--11-7------------9----7----5------------|
|7-7-7--10--9--5---7-7-7--10--9--5--END-WITH--7----5----3------------|
|--------------------------------------------------------------------|